Oops, an error
Loading. Please wait.

Money Bass Tab

version 1
version 1

Whole song

Interactive

1,451 views 6 this week
no commentswrite comment
1 2 3 4 5
x 6
add to favorites
launch autoscroll
font size
0
reset
guitar tuner
Autoscroll
slow
fast
+/-
esc
set tempo
stop
Help us to improve Ultimate-Guitar.com Take our survey!
×
Author
Difficulty
Tabbers playing skills
novice
intermediate ++
-------------------------------------------------------------------------------
			     Money - Serj Tankian
-------------------------------------------------------------------------------

Tabbed By : Sevan K.
e-mail: masterdebassist@yahoo.com

Tuning: DADG

Wait a couple measures for the piano part..then.....
Verse
G|---------------------------------------------------------------------------|
D|---------------------------------------------------------------------------|
A|-----------------------------------------------0-0-0-----------------------|
D|-5--5-5---5---3---3-3---3---1---1-1---1--0---0-----------------------------|x2
Chorus
G|----------------|
D|----------------|
A|----------------|
D|--5---3---1-0---|x8

G|-------|
D|-------|
A|-------|
D|-5~----|
verse
G|---------------------------------------------------------------------------|
D|---------------------------------------------------------------------------|
A|---------------------------------------------------------------------------|
D|--5---5-5---5---5-5---8---8-8--8-6---6-6---6--------------------|X4

G|---------------------------------------------------------------------------|
D|---------------------------------------------------------------------------|
A|---------------------------------------------------------0-0-0-0-----------|
D|-5-5-5-5-5-5-5-5-3-3-3-3-3-3-3-3-1-1-1-1-1-1-1-1-0-0-0-0-------------------|X2
chorus
G|----------------|
D|----------------|
A|----------------|
D|--5---3---1-0---|x8

G|-------|
D|-------|
A|-------|
D|-5~----|
verse
G|---------------------------------------------------------------------------|
D|--5---5-5---5---5-5---8---8-8--8-\6---6-6---6------------------------------|
A|---------------------------------------------------------------------------|
D|---------------------------------------------------------------------------|

G|---------------------------------------------------------------------------|
D|---------------------------------------------------------------------------|
A|---------------------------------------------------------0-0-0-0-----------|
D|-5-5-5-5-5-5-5-5-3-3-3-3-3-3-3-3-1-1-1-1-1-1-1-1-0-0-0-0-------------------|X4

Chorus
G|----------------|
D|----------------|
A|----------------|
D|--5---3---1-0---|x16

G|-------|
D|-------|
A|-------|
D|-5~----|

G|-------|
D|-5~----|
A|-------|
D|-------|


| /  slide up
| \  slide down
| h  hammer-on
| p  pull-off
| ~  vibrato
| +  harmonic
| x  Mute note
===============================================================================
Suggest correction
comments
print report bad tab
guest
You may want to rate the tab now too:
select rating
Wanna post a correction for this tab? Suggest correction