Oops, an error
Loading. Please wait.

Patterns Bass Tab

1,289 views 1 this week
no commentswrite comment
1 2 3 4 5
3 more votes to show rating
add to favorites
launch autoscroll
font size
0
reset
guitar tuner
Autoscroll
slow
fast
+/-
esc
set tempo
stop
Help us to improve Ultimate-Guitar.com Take our survey!
×
Author
Difficulty
Tuning
intermediate
D A D G B E
Serj Tankian f.System Of A Down/Tony Iommi f.Black Sabbath-Patterns

Tuned in:Drop D:(D-A-D-G)
Album:Iommi
Time:3:04*
(NOTE: i only have the first 3:04 minutes of this song. ive never heard
the rest of it. mine cuts off for some weird reason).

0:00
|---------------------|
|-DRUM-+-INSTRUMENTAL-|
|--------INTRO--------|
|---------------------|

Intro 0:16
|--------------------------------|
|--------------------------------|
|--------------------------------|
|-0--3-353-0-0-35-6--5--353-0-0--|X2]

Verse 0:33(all 3's may be different. feel free to toggle)
|--------------------------------------------------------|
|--------------------------------------------------------|
|--------------------------------------------------------|
|-0-(3)-5-3-5-3.--3-5-3-5-3-5-3.-0-3-5-3-5-3.-0-3-5-8-7--|X2]
"Life is a story, go.."

Mini-Bridge 0:51
|--------------------------------|
|--------------------------------|
|--------------------------------|
|-0--3-353-0-0-35-6--5--353-0-0--|X2]

Verse 0:57
|----------------------------------------------------|
|----------------------------------------------------|
|----------------------------------------------------|
|-0-(3)-5-3-5-3.--3-5-3-5-3.-0-3-5-3-5-3.-0-3-5-8-7--|X2]
"Life is your glory, go ahead..."

Chorus 1:12(Not right, best i could do =[ )
(----------------------------------)
(----------------------------------)
(----------------------7-6---7-----)
(-10--10--10--10-5--58------8-8-7--)X2)
"But to live means to be here..."

[12=played 16x]
|-------------------------------------------------------------------|
|-------------------------------------------------------------------|
|-------------------------------------------------------------------|
|-10--10--10--10--[12]-12-12-12-12-12-12-12-12-12-12-12-12-12-12-12-|

Pre-Verse 1:37
|--------------------------------------------------------|
|--------------------------------------------------------|
|--------------------------------------------------------|
|-0-(3)-5-3-5-3.--3-5-3-5-3-5-3.-0-3-5-3-5-3.-0-3-5-8-7--|X2]
"Siiiiiiiiigns..."


|--------------------------------|
|--------------------------------|
|--------------------------------|
|-0--3-353-0-0-35-6--5--353-0-0--|X2]
"Pretending that we live doesnt..."

Verse 2:00
|--------------------------------------------------------|
|--------------------------------------------------------|
|--------------------------------------------------------|
|-0-(3)-5-3-5-3.--3-5-3-5-3-5-3.-0-3-5-3-5-3.-0-3-5-8-7--|X2]
"Life is a story..."


Chorus 2:20
(----------------------------------)
(----------------------------------)
(----------------------7-6---7-----)
(-10--10--10--10-5--58------8-8-7--)X2)
"But to live means to be here..."

|------(2:36)------|
|------------------|------------------------------------------------|
|------------------|------------------------------------------------|
|------------------V------------------------------------------------|
|-10--10--10--10---12--12-12-12-12-12-12-12-12-12-12-12-12-12-12-12-|

2:40
|--------------------------------------------------------|
|--------------------------------------------------------|
|--------------------------------------------------------|
|-0-(3)-5-3-5-3.--3-5-3-5-3-5-3.-0-3-5-3-5-3.-0-3-5-8-7--|X2]

|--------------------------------|????????
|--------------------------------|????????
|--------------------------------|????????
|-0--3-353-0-0-35-6--5--353-0-0--|????????
Suggest correction
Give kudos to tab author, rate the tab!
1 2 3 4 5
comments
print report bad tab
guest
You may want to rate the tab now too:
select rating
Wanna post a correction for this tab? Suggest correction