Oops, an error
Loading. Please wait.

Saving Us Tab

version 2
version 2

Intro

Whole song

Interactive

3,282 views 1 this week
6 commentsread comments
1 2 3 4 5
x 3
add to favorites
launch autoscroll
font size
0
reset
how to read this tab
guitar tuner
Autoscroll
slow
fast
+/-
esc
set tempo
stop
Help us to improve Ultimate-Guitar.com Take our survey!
×
my 1st tab. ive been playing for a month and i figured this out(i think)Not alot of tabs 
this song so i'll try

Serj Tankian-Saving us intro
tuning Standard

E---------------------------------------------------|
B-----1-----1-----1-----1---------------------------|
G---2-----2-----2-----2-------4-----4-----4-----4---|
D-2-----2-----2-----2-------6-----6-----6-----6-----|
A-------------------------5-----5-----5-----5-------|
E---------------------------------------------------| Play twice

then
E--------------------------------------------------------------|
B--------------------------------------------------------------|
G-----2-----2-----2-----2--------------------------------------|
D---4-----4-----4-----4--------2-----2-----2----2--------------|
A-4-----4-----4-----4--------2-----2-----2----2----------------|
E--------------------------1-----1-----1-----1-----------------|

E----------------------------------------0---------------------|
B----------------------------------------0---------------------|
G-----2-----2-----2-----2-------0--------0---------------------|
D---4-----4-----4-----4-------2---2------2---------------------|
A-4-----4-----4-----4-------2-------2----2---------------------|
E-------------------------1-----------0--0---------------------|

thats all i could figure out cause then the drums come in and he starts singing(and 
i suck too)so i cant hear it. but oh well hope its right
(comment)
Suggest correction
Give kudos to tab author, rate the tab!
1 2 3 4 5
comments
print report bad tab
6 comments total. Showing first comments.
0 reply
iliketacos 10 Oct 22, 2007 11:50 PM

----------------------------------------------
----------------------------------------------
-----7--7---7---7-----4----4----4----4--------
---5---5---5---5----6----6----6----6----------
-5----5---5---5---5----5----5----5------------
----------------------------------------------2x
thats better for beggining

0 reply
webbster87 97 Jan 03, 2008 05:59 AM

this sucks!

0 reply
webbster87 97 Jan 13, 2008 01:23 AM

YOUR BOTH WRONG! GO LOOK AT AND PLAY THE VER. 1 INTRO ITS SPOT ON!

guest
You may want to rate the tab now too:
select rating
Wanna post a correction for this tab? Suggest correction