Oops, an error
Loading. Please wait.

Saving Us Tab

version 1
version 1

Whole song

Interactive

67,362 views 51 this week
11 commentsread comments
1 2 3 4 5
x 25
add to favorites
launch autoscroll
font size
0
reset
how to read this tab
guitar tuner
Autoscroll
slow
fast
+/-
esc
set tempo
stop
Help us to improve Ultimate-Guitar.com Take our survey!
×
Author
GTR I  : EADGBE (standard tuning)
GTR II : CGCFAD (Drop C)
GTR III: CGCFAD (Drop C)
Tempo: 120 bpm
Timing: 12/8

  [Riff A] (GTR I) - acoustic
e|----------------------------------------------|------------------------------------------|
B|----------------------------------------------|------------------------------------------|
G|----------------------------------------------|------------------------------------------|
D|---------10---------10---------10---------10--|---------9---------9---------9---------9--|
A|-----12---------12---------12---------12------|-----10--------10--------10--------10-----|
E|--0----------0----------0----------0----------|--0---------0---------0---------0---------|

e|----------------------------------------------|------------------------------------------|
B|----------------------------------------------|------------------------------------------|
G|----------------------------------------------|------------------------------------------|
D|---------10---------10---------10---------10--|---------9---------9---------9---------9--|
A|-----12---------12---------12---------12------|-----10--------10--------10--------10-----|
E|--0----------0----------0----------0----------|--0---------0---------0---------0---------|

e|--------------------------------------|--------------------------------------|
B|--------------------------------------|--------------------------------------|
G|--------------------------------------|--------------------------------------|
D|--------8--------8--------8--------8--|--------5--------5--------5--------5--|
A|-----9--------9--------9--------9-----|-----7--------7--------7--------7-----|
E|--0--------0--------0--------0--------|--0--------0--------0--------0--------|

e|--------------------------------------|---------------------------0-------|
B|--------------------------------------|---------------------------0-------|
G|--------------------------------------|-----------0---------------0-------|
D|--------7--------7--------7--------7--|--------2-----2------------2----2--|
A|-----9--------9--------9--------9-----|-----2-----------2---------2-------|
E|--0--------0--------0--------0--------|--0-----------------0------0-------|

  [Riff B] (GTR II) - clean electric (hard to figure out this part, maybe not 100% perfect)
D|--9--9--9--9--9--9--9--7--7--7--7--7--|--7--5--5--5--5--5--4--5--4--2----(2)s--|
A|--------------------------------------|----------------------------------------|
F|--------------------------------------|----------------------------------------|
C|--------------------------------------|----------------------------------------|
G|--------------------------------------|----------------------------------------|
C|--------------------------------------|----------------------------------------|

D|--9--9--9--9--9--9--9--7--7--7--7--7--|--14-14-14-14-16-16-17-17-17-17-16-16-------------------------|
A|--------------------------------------|--------------------------------------------------------------|
F|--------------------------------------|--------------------------------------13--14--13--11----(11)--|
C|--------------------------------------|--------------------------------------------------------------|
G|--------------------------------------|--------------------------------------------------------------|
C|--------------------------------------|--------------------------------------------------------------|

D|------------------------------------------------|--14--12--12--12--11--11--11--9--9--9------|
A|---------------------------------------------9--|--12--10--10--10---9---9---9--7--7--7------|
F|--------------------------------------9--11-----|-------------------------------------------|
C|--12--12--12--12--12--12--12--11--12------------|-------------------------------------------|
G|------------------------------------------------|-------------------------------------------|
C|------------------------------------------------|-------------------------------------------|

D|--------------------------------------|---------------------------------|
A|--------------------------------------|--7--7--7--7--7--7--7------------|
F|--7--7--7--7--7--7--7--6--6--6--6--6--|---------------------------------|
C|--------------------------------------|---------------------------------|
G|--------------------------------------|---------------------------------|
C|--------------------------------------|---------------------------------|

 [Riff C] (GTR III) electric w/ overdrive
D|--------------------------------------|--------------------------------------|
A|--------------------------------------|--------------------------------------|
F|--------------------------------------|--------------------------------------|
C|--4--4--4--4--4--4--4--4--4--4--4--4--|--7--7--7--7--7--7--7--7--7--7--7--7--|
G|--4--4--4--4--4--4--4--4--4--4--4--4--|--7--7--7--7--7--7--7--7--7--7--7--7--|
C|--4--4--4--4--4--4--4--4--4--4--4--4--|--7--7--7--7--7--7--7--7--7--7--7--7--|

D|--------------------------------------|--------------------------------------------------|
A|--------------------------------------|--------------------------------------------------|
F|--------------------------------------|--------------------------------------------------|
C|--9--9--9--9--9--9--9--9--9--9--9--9--|--12--12--12--12--12--12--12--14--14--14--14--14--|
G|--9--9--9--9--9--9--9--9--9--9--9--9--|--12--12--12--12--12--12--12--14--14--14--14--14--|
C|--9--9--9--9--9--9--9--9--9--9--9--9--|--12--12--12--12--12--12--12--14--14--14--14--14--|

 [Riff D] (GTR II) electric w/ overdrive
D|--0------7------5------3------|---------7------5------3------|
A|------------------------------|------------------------------|
F|------------------------------|--6---------------------------|
C|------------------------------|------------------------------|
G|------------------------------|------------------------------|
C|------------------------------|------------------------------|

D|---------7------5------3------|----------------2------3------|
A|------------------------------|--3------4--------------------|
F|--5---------------------------|------------------------------|
C|------------------------------|------------------------------|
G|------------------------------|------------------------------|
C|------------------------------|------------------------------|

D|--0--0--0--0--0--0--0--0--7--7--7--7--7--7--7--7--5--5--5--5--5--5--5--5--3--3--|
A|--------------------------------------------------------------------------------|
F|--------------------------------------------------------------------------------|
C|--------------------------------------------------------------------------------|
G|--------------------------------------------------------------------------------|
C|--------------------------------------------------------------------------------|

D|--------------------------7--7--7--7--7--7--7--7--5--5--5--5--5--5--5--5--3--3--|
A|--2--2--2--2--2--2--2--2--------------------------------------------------------|
F|--------------------------------------------------------------------------------|
C|--------------------------------------------------------------------------------|
G|--------------------------------------------------------------------------------|
C|--------------------------------------------------------------------------------|

D|--------------------------7--7--7--7--7--7--7--7--5--5--5--5--5--5--5--5--3--3--|
A|--1--1--1--1--1--1--1--1--------------------------------------------------------|
F|--------------------------------------------------------------------------------|
C|--------------------------------------------------------------------------------|
G|--------------------------------------------------------------------------------|
C|--------------------------------------------------------------------------------|

D|--------------------------------------------------2--2--2--2--2--2--2--2--3--3--|
A|--3--3--3--3--3--3--3--3--4--4--4--4--4--4--4--4--------------------------------|
F|--------------------------------------------------------------------------------|
C|--------------------------------------------------------------------------------|
G|--------------------------------------------------------------------------------|
C|--------------------------------------------------------------------------------|

 Riff E (GTR III)
D|--------------------------------------------------|
A|--------------------------------------------------|
F|--------------------------------------------------|
C|--2--2--2--2--2--2--2-----2--2--2--2--2--2--2-----|
G|--2--2--2--2--2--2--2-----2--2--2--2--2--2--2-----|
C|--2--2--2--2--2--2--2-----2--2--2--2--2--2--2-----|

D|--------------------------------------------------|
A|--------------------------------------------------|
F|--------------------------------------------------|
C|--11-11-11-11-11-11-11----11-11-11-11-11-11-11----|
G|--11-11-11-11-11-11-11----11-11-11-11-11-11-11----|
C|--11-11-11-11-11-11-11----11-11-11-11-11-11-11----|

D|--------------------------------------------------|
A|--------------------------------------------------|
F|--------------------------------------------------|
C|--10-10-10-10-10-10-10----10-10-10-10-10-10-10----|
G|--10-10-10-10-10-10-10----10-10-10-10-10-10-10----|
C|--10-10-10-10-10-10-10----10-10-10-10-10-10-10----|

D|--------------------------------------------------|
A|--------------------------------------------------|
F|--------------------------------------------------|
C|--12-12-12-12-12-12-12----13-13-13-13-13-13-13----|
G|--12-12-12-12-12-12-12----13-13-13-13-13-13-13----|
C|--12-12-12-12-12-12-12----13-13-13-13-13-13-13----|

D|--------------------------------------------------|
A|--------------------------------------------------|
F|--------------------------------------------------|
C|--2--2--2--2--2--2--2-----2--2--2--2--2--2--2-----|
G|--2--2--2--2--2--2--2-----2--2--2--2--2--2--2-----|
C|--2--2--2--2--2--2--2-----2--2--2--2--2--2--2-----|

D|--------------------------------------------------|
A|--------------------------------------------------|
F|--------------------------------------------------|
C|--11-11-11-11-11-11-11----11-11-11-11-11-11-11----|
G|--11-11-11-11-11-11-11----11-11-11-11-11-11-11----|
C|--11-11-11-11-11-11-11----11-11-11-11-11-11-11----|

D|--------------------------------------------------|
A|--------------------------------------------------|
F|--------------------------------------------------|
C|--10-10-10-10-10-10-10----10-10-10-10-10-10-10----|
G|--10-10-10-10-10-10-10----10-10-10-10-10-10-10----|
C|--10-10-10-10-10-10-10----10-10-10-10-10-10-10----|

D|--------------------------------------------------|
A|--------------------------------------------------|
F|--------------------------------------------------|
C|--12-12-12-12-12-12-12----13-13-13-13-13-13-13----|
G|--12-12-12-12-12-12-12----13-13-13-13-13-13-13----|
C|--12-12-12-12-12-12-12----13-13-13-13-13-13-13----|

 [Riff F] (GTR III) electric w/ overdrive
D|--------------------------------------------------|
A|--------------------------------------------------|
F|--------------------------------------------------|
C|--3-3-3-3-3-3-3-3-3-5--6--3-3-3-3-3-3-3-3-3-5--6--|
G|--3-3-3-3-3-3-3-3-3-5--6--3-3-3-3-3-3-3-3-3-5--6--|
C|--3-3-3-3-3-3-3-3-3-5--6--3-3-3-3-3-3-3-3-3-5--6--|

D|--------------------------------------------------|
A|--------------------------------------------------|
F|--------------------------------------------------|
C|--0-0-0-0-0-0-0-0-0-5--6--0-0-0-0-0-0-0-0-0-5--6--|
G|--0-0-0-0-0-0-0-0-0-5--6--0-0-0-0-0-0-0-0-0-5--6--|
C|--0-0-0-0-0-0-0-0-0-5--6--0-0-0-0-0-0-0-0-0-5--6--|

D|--------------------------------------------------------------------|
A|--------------------------------------------------------------------|
F|--------------------------------------------------------------------|
C|--11-11-11-11-11-11-11-11-11-5--6--11-11-11-11-11-11-11-11-11-5--6--|
G|--11-11-11-11-11-11-11-11-11-5--6--11-11-11-11-11-11-11-11-11-5--6--|
C|--11-11-11-11-11-11-11-11-11-5--6--11-11-11-11-11-11-11-11-11-5--6--|

D|--------------------------------------------------|
A|--------------------------------------------------|
F|--------------------------------------------------|
C|--1-1-1-1-1-1-1-1-1-5--6--2-2-2-2-2-2-2-2-2-5--6--|
G|--1-1-1-1-1-1-1-1-1-5--6--2-2-2-2-2-2-2-2-2-5--6--|
C|--1-1-1-1-1-1-1-1-1-5--6--2-2-2-2-2-2-2-2-2-5--6--|

[Riff A] * 2
[Riff A] + Riff B
[Riff C] * 2
[Riff A]
[Riff A] + Riff B
[Riff C] * 2
[Riff D] + Riff E
[Riff F] * 2
[Riff C] * 4
[Riff A] (first 5 bars, then fade out)

************************************

| (n)  Ghost note

************************************

Feedback is welcome !!
Suggest correction
comments
print report bad tab
11 comments total. Showing first comments.
0 reply
jugamasta420 338 Oct 29, 2007 04:23 PM

good
4 stars
but everything cept the acoustic is tuned drop d

0 reply
GA7X 10 Nov 23, 2007 09:47 PM

i have to agree with jugamasta420, everything's tuned in drop d and well apart of that

AWESOME
4 stars :D

0 reply
PaperEye 471 Nov 24, 2007 06:32 AM

Well I still think it's Drop C... In Riff F, you hear "3333356" and then "0000056" and it's definitively not one octave
higher. If you know what I mean.
Thanks anyway ;)

guest
You may want to rate the tab now too:
select rating
Wanna post a correction for this tab? Suggest correction