Oops, an error
Loading. Please wait.

Sky Is Over intro tab

version 1
version 1

Intro

Whole song

Interactive

10,579 views 1 this week
2 commentsread comments
1 2 3 4 5
x 3
add to favorites
×
Save as Personal and add changes to this tab that will be seen only by you. Learn more ›
×
You can save this tab as Personal to edit and correct it or add notes. All changes will be seen only by you. Learn more »
launch autoscroll
font size
0
reset
how to read this tab
guitar tuner
edit
Autoscroll
slow
fast
+/-
esc
set tempo
stop
Author
Difficulty
Right just so no one rips me to pieces straight away, i know the intro is played on a 
i just thought that it might be useful to make a guitar tab for it, so it would be 
to more people. you can work out the notes and transfer it onto a piano anyway.

rate and comment please


Sky is over (intro and first verse)


|------------------------------|
|------------------------------|
|------------------------------|
|-----1313131313--12-10-12-----|
|-11---------------------------|
|------------------------------|

|------------------------------|
|------------------------------|
|------------------------------|
|-----1313131313--12-10-12-----|
|-10---------------------------|
|------------------------------|

|------------------------------|
|------------------------------|
|-----1313131313--12-10-12-----|
|------------------------------|
|-13---------------------------|
|------------------------------|

|------------------------------|
|------------------------------|
|------------------------------|
|-----1313131313--12-10-12-----|
|-11---------------------------|
|------------------------------|

|------------------------------|
|------------------------------|
|------------------------------|
|-----1313131313--12-10-12-----|
|-10---------------------------|
|------------------------------|

|------------------------------|
|------------------------------|
|-----1313131313--12-10-12-----|
|------------------------------|
|-13---------------------------|
|------------------------------|

|------------------------------|
|------------------------------|
|------------------------------|
|------13--------12------------|
|-11---------10----------------|
|------------------------------|

|------------------------------|
|------------------------------|
|------------------------------|
|-10----1313131313--12-10-12---|
|------------------------------|
|------------------------------|

|------------------------------|
|------------------------------|
|------------------------------|
|-----1313131313--12-10-12-----|
|-10---------------------------|
|------------------------------|

|------------------------------|
|------------------------------|
|-----1313131313--12-10-12-----|
|------------------------------|
|-13---------------------------|
|------------------------------|

|------------------------------|
|------------------------------|
|------------------------------|
|------13--------12------------|
|-11---------10----------------|
|------------------------------|

|------------------------------|
|------------------------------|
|------------------------------|
|-10----1313131313--12-10-12---|
|------------------------------|
|------------------------------|

|------------------------------|
|------------------------------|
|------------------------------|
|-----1313131313--12-10-12-----|
|-10---------------------------|
|------------------------------|

|------------------------------|
|------------------------------|
|-----1313131313--12-10-12-----|
|------------------------------|
|-13---------------------------|
|------------------------------|

|------------------------------|
|------------------------------|
|------------------------------|
|------13--------12------------|
|-11---------10----------------|
|------------------------------|
  Sky  is    ov--er

Next comes the bit where he sings "dont you want to hold me baby" and i think that part 
tabbed already
Suggest correction
Creating personal tab
Creating personal tab
You can edit any tab online and save it as your Personal.

You can edit, replace or remove any tab part or add personal notes – all changes will be seen only by you.

Personal tabs can be accessed anytime from any device, even offline.
Learn more »
Give kudos to tab author, rate the tab!
1 2 3 4 5
comments
print report bad tab
2 comments total.
0 reply
En_zed 30 Dec 05, 2007 06:36 PM

Nicee...

0 reply
A5HF1EUTY 10 Dec 24, 2007 10:23 AM

Nice tab man :D sounds note perfect, keep these gd tabs comin so UG stays a great website :D

guest
You may want to rate the tab now too:
select rating
Wanna post a correction for this tab? Suggest correction