Oops, an error
Loading. Please wait.

Unthinking Majority bass

version 1
version 1

Whole song

Interactive

3,190 views 3 this week
9 commentsread comments
1 2 3 4 5
x 4
add to favorites
×
Save as Personal and add changes to this tab that will be seen only by you. Learn more ›
×
You can save this tab as Personal to edit and correct it or add notes. All changes will be seen only by you. Learn more »
launch autoscroll
font size
0
reset
guitar tuner
edit
Autoscroll
slow
fast
+/-
esc
set tempo
stop
Author
Difficulty
----------------------------------------------------------------------------
			     unthinking majority – Serj Tankian
----------------------------------------------------------------------------

Tabbed By : Emo=fights=yay
e-mail: domoberhumer@hotmail.com

Tuning: standard I think. May be different.

Comes in at 08 seconds

 Riff 1
G|--------------------------------------------------------------------------|
D|--------------------------------------------------------------------------|
A|44444-44444-44444-4444222200000-00000----------22222222-------------------|
E|--------------------------------------44444444----------------------------|

Riff 2
G|--------------------------------------------------------------------------|
D|--------------------------------------------------------------------------|
A|--0-1---0-1-----0-1------1—3---0-1---0-1-----1-0------1-3-----------------|
E|0-----0-----3-0------3-2-----0-----0-----3-0------3-2---------------------|

Riff 3
G|--------------------------------------------------------------------------|
D|--------------------------------------------------------------------------|
A|--0-1---0-1-----0-1-------------------------------------------------------|
E|0-----0-----3-0-----78573523----------------------------------------------|

 Riff 1 X2
G|--------------------------------------------------------------------------|
D|--------------------------------------------------------------------------|
A|44444-44444-44444-4444222200000-00000----------22222222-------------------|
E|--------------------------------------44444444----------------------------|

Riff 4
G|--------------------------------------------------------------------------|
D|--------------------------------------------------------------------------|
A|--0-1---0-1-----0-1-----1-3---0-1---0-1-----0-1---------------------------|
E|0-----0-----3-0-----3-2-----0-----0-----3-0-----78573523------------------|

Riff 5
G|--------------------------------------------------------------------------|
D|--------------------------------------------------------------------------|
A|4444444444444-------------------------------------------------------------|
E|--------------------------------------------------------------------------|

Order of play
Riff 1: X3
Riff 2:
Riff      3:
Riff      1: X2
Riff      4:
Riff      1: X4
Riff      5: X12
Riff      2:
Riff      3:
Riff      5:X4
Riff      1:X4
Riff      5:X4

This is for all the long time SOAD fans interested in the next phase. Its my first tab 
please tell me if i got something wrong. Enjoy the song and have fun playing.

            
            
Suggest correction
Creating personal tab
Creating personal tab
You can edit any tab online and save it as your Personal.

You can edit, replace or remove any tab part or add personal notes – all changes will be seen only by you.

Personal tabs can be accessed anytime from any device, even offline.
Learn more »
comments
print report bad tab
9 comments total. Showing first comments.
+1 reply
emo=Fights=yay 52 Sep 29, 2007 09:04 AM

sorry the tuning is CFCG. At least i think it is

0 reply
tynman_19 20 Oct 01, 2007 07:09 PM

im not sure what tuing it is in but it sounds pretty correct in standard drop D and drop C

-1 reply
Jimmy B Drag 10 Oct 11, 2007 01:55 AM

knowin serj, he probably untuned a guitar, began plucking random notes and called it a song..

which is not at all to say it's not awesome =P

guest
You may want to rate the tab now too:
select rating
Wanna post a correction for this tab? Suggest correction