Oops, an error
Loading. Please wait.

Unthinking Majority tab

version 3
version 3

Whole song

Interactive

1,917 views 9 this week
1 commentread comment
1 2 3 4 5
x 7
add to favorites
×
Save as Personal and add changes to this tab that will be seen only by you. Learn more ›
×
You can save this tab as Personal to edit and correct it or add notes. All changes will be seen only by you. Learn more »
launch autoscroll
font size
0
reset
how to read this tab
guitar tuner
edit
Autoscroll
slow
fast
+/-
esc
set tempo
stop
Difficulty
Serj's First single from his first album, 
The Unthinking Majority


Questions or comments e-mail me @

mejo11@comcast.net


e------------------------------------------------------------------------|
B------------------------------------------------------------------------|
G--4-4-4-4-4----4-4-4-4-4----4-4-4-4-4----4-4-4-4-2-2-2-2----------------|
D--4-4-4-4-4----4-4-4-4-4----4-4-4-4-4----4-4-4-4-2-2-2-2---5-5-5-5-5----|
A--2-2-2-2-2----2-2-2-2-2----2-2-2-2-2----2-2-2-2-0-0-0-0---5-5-5-5-5----|
E-----------------------------------------------------------3-3-3-3-3----|


e---------------------------------------------------------------|
B---------------------------------------------------------------|
G---------------------------------------------------------------|
D--5-5-5-5-5------2-2-2-2-2------5-5-5-5-5----------------------|
A--5-5-5-5-5------2-2-2-2-2------5-5-5-5-5----------------------|
E--3-3-3-3-3------0-0-0-0-0------3-3-3-3-3----------------------|

                                x4 
                              (1st time sloppy and faded with feedback)

e---------------------------------------------------------------------|
B---------------------------------------------------------------------|
G------1--0-----------------------------------------------------------|
D------------3--1--0--1-----0--1--3--1--0--1-----0--1--3--1--0--1-----|
A---3--------------------3--------------------3-----------------------|
E---------------------------------------------------------------------|


e------------------------------------------------------------|
B------------------------------------------------------------|
G------------------------------------------------------------|
D--5--6--3--5--1--3--0--1------------------------------------|
A------------------------------------------------------------|
E------------------------------------------------------------|

                          (1st time no distortion)
                          (2nd time use distortion & higher octave)

e------------------------------------------------------------------------|
B------9--8--------------------------------------------------------------|
G------------10--8--7--8--------7--8--10--8--7--8------7--8--10--8--7--9-|
D--10-----------------------10---------------------10--------------------|
A------------------------------------------------------------------------|
E------------------------------------------------------------------------|


e------------------------------------------------------------|
B------------------------------------------------------------|
G--12--13--10--12--10--12--9--10-----------------------------|
D------------------------------------------------------------|
A------------------------------------------------------------|
E------------------------------------------------------------|



e------------------------------------------------------------------------|
B------------------------------------------------------------------------|
G--4-4-4-4-4----4-4-4-4-4----4-4-4-4-4----4-4-4-4-2-2-2-2----------------|
D--4-4-4-4-4----4-4-4-4-4----4-4-4-4-4----4-4-4-4-2-2-2-2---5-5-5-5-5----|
A--2-2-2-2-2----2-2-2-2-2----2-2-2-2-2----2-2-2-2-0-0-0-0---5-5-5-5-5----|
E-----------------------------------------------------------3-3-3-3-3----|


e---------------------------------------------------------------|
B---------------------------------------------------------------|
G---------------------------------------------------------------|
D--5-5-5-5-5------2-2-2-2-2------5-5-5-5-5----------------------|
A--5-5-5-5-5------2-2-2-2-2------5-5-5-5-5----------------------|
E--3-3-3-3-3------0-0-0-0-0------3-3-3-3-3----------------------|

                                                                   x2



e---------------------------------------------------------------------|
B---------------------------------------------------------------------|
G------1--0-----------------------------------------------------------|
D------------3--1--0--1-----0--1--3--1--0--1-----0--1--3--1--0--1-----|
A---3--------------------3--------------------3-----------------------|
E---------------------------------------------------------------------|


e------------------------------------------------------------|
B------------------------------------------------------------|
G------------------------------------------------------------|
D--5--6--3--5--1--3--0--1------------------------------------|
A------------------------------------------------------------|
E------------------------------------------------------------|

                          (1st & 2nd time use distortion)
                          

e------------------------------------------------------------------------|
B------9--8--------------------------------------------------------------|
G------------10--8--7--8--------7--8--10--8--7--8------7--8--10--8--7--9-|
D--10-----------------------10---------------------10--------------------|
A------------------------------------------------------------------------|
E------------------------------------------------------------------------|


e------------------------------------------------------------|
B------------------------------------------------------------|
G--12--13--10--12--10--12--9--10-----------------------------|
D------------------------------------------------------------|
A------------------------------------------------------------|
E------------------------------------------------------------|



e------------------------------------------------------------------------|
B------------------------------------------------------------------------|
G--4-4-4-4-4----4-4-4-4-4----4-4-4-4-4----4-4-4-4-2-2-2-2----------------|
D--4-4-4-4-4----4-4-4-4-4----4-4-4-4-4----4-4-4-4-2-2-2-2---5-5-5-5-5----|
A--2-2-2-2-2----2-2-2-2-2----2-2-2-2-2----2-2-2-2-0-0-0-0---5-5-5-5-5----|
E-----------------------------------------------------------3-3-3-3-3----|


e---------------------------------------------------------------|
B---------------------------------------------------------------|
G---------------------------------------------------------------|
D--5-5-5-5-5------2-2-2-2-2------5-5-5-5-5----------------------|
A--5-5-5-5-5------2-2-2-2-2------5-5-5-5-5----------------------|
E--3-3-3-3-3------0-0-0-0-0------3-3-3-3-3----------------------|

                                                             x4 


e------------------------------------------------------------|
B------------------------------------------------------------|
G------------------------------------------------------------|
D-----3p2p0------------3p2p0---------------------------------|
A--2--------h3p2p0--2----------------------------------------|
E------------------------------------------------------------|
                                                      x12


e---------------------------------------------------------------------|
B---------------------------------------------------------------------|
G------1--0-----------------------------------------------------------|
D------------3--1--0--1-----0--1--3--1--0--1-----0--1--3--1--0--1-----|
A---3--------------------3--------------------3-----------------------|
E---------------------------------------------------------------------|


e------------------------------------------------------------|
B------------------------------------------------------------|
G------------------------------------------------------------|
D--5--6--3--5--1--3--0--1------------------------------------|
A------------------------------------------------------------|
E------------------------------------------------------------|

                          (1st & 2nd time use distortion)
                          

e------------------------------------------------------------------------|
B------9--8--------------------------------------------------------------|
G------------10--8--7--8--------7--8--10--8--7--8------7--8--10--8--7--9-|
D--10-----------------------10---------------------10--------------------|
A------------------------------------------------------------------------|
E------------------------------------------------------------------------|


e------------------------------------------------------------|
B------------------------------------------------------------|
G--12--13--10--12--10--12--9--10-----------------------------|
D------------------------------------------------------------|
A------------------------------------------------------------|
E------------------------------------------------------------|


e------------------------------------------------------------|
B------------------------------------------------------------|
G------------------------------------------------------------|
D-----3p2p0------------3p2p0---------------------------------|
A--2--------h3p2p0--2----------------------------------------|
E------------------------------------------------------------|

                                                        x4


e------------------------------------------------------------------------|
B------------------------------------------------------------------------|
G--4-4-4-4-4----4-4-4-4-4----4-4-4-4-4----4-4-4-4-2-2-2-2----------------|
D--4-4-4-4-4----4-4-4-4-4----4-4-4-4-4----4-4-4-4-2-2-2-2---5-5-5-5-5----|
A--2-2-2-2-2----2-2-2-2-2----2-2-2-2-2----2-2-2-2-0-0-0-0---5-5-5-5-5----|
E-----------------------------------------------------------3-3-3-3-3----|


e---------------------------------------------------------------|
B---------------------------------------------------------------|
G---------------------------------------------------------------|
D--5-5-5-5-5------2-2-2-2-2------5-5-5-5-5----------------------|
A--5-5-5-5-5------2-2-2-2-2------5-5-5-5-5----------------------|
E--3-3-3-3-3------0-0-0-0-0------3-3-3-3-3----------------------|

                                x4 



e------------------------------------------------------------|
B------------------------------------------------------------|
G------------------------------------------------------------|
D-----3p2p0------------3p2p0---------------------------------|
A--2--------h3p2p0--2----------------------------------------|
E------------------------------------------------------------|

                                                      x4

e--19-------------------------------------|
B-----------------------------------------|
G-----------------------------------------|
D-----------------------------------------|
A-----------------------------------------|
E-----------------------------------------|

            
            
Suggest correction
Creating personal tab
Creating personal tab
You can edit any tab online and save it as your Personal.

You can edit, replace or remove any tab part or add personal notes – all changes will be seen only by you.

Personal tabs can be accessed anytime from any device, even offline.
Learn more »
comments
print report bad tab
1 comment total.
0 reply
R4B8I7 10 Sep 20, 2007 01:19 PM

dude

guest
Wanna post a correction for this tab? Suggest correction