Oops, an error
Loading. Please wait.

Niemals Einfach So chords

91 views 3 this week
no commentswrite comment
1 2 3 4 5
3 more votes to show rating
add to favorites
×
Save as Personal and add changes to this tab that will be seen only by you. Learn more ›
×
You can save this tab as Personal to edit and correct it or add notes. All changes will be seen only by you. Learn more »
launch autoscroll
font size
0
reset
transpose
0
reset
display chords
guitar tuner
edit
Autoscroll
slow
fast
+/-
esc
set tempo
stop
Strumming
There is no strumming pattern for this song yet. and get +5 IQ
   Em-Part             always 2x   C-Part                          Am-Part
E|-------------------------------|-------------------------------|------------------------------
B|-------------------------------|-------------------------------|------------------------------
G|------------0--------------0---|------------0--------------0---|------------0--------------0--
D|----2---0h2---2----2---0h2-----|----2---0h2---2----2---0h2-----|----2---0h2---2----2---0h2----
A|-------------------------------|-3---(3)--------3---(3)--------|-0---(0)--------0---(0)------- 
E|-0---(0)--------0---(0)--------|-------------------------------|------------------------------

[Intro]
Em-Part 

[VERSE]
Em-Part
Das ist das Leben, das haben wir gewählt 
Heute hier und keinen Plan wohin es morgen geht 
C-Part
Wo immer Freunde warten um uns wieder zu sehen
Am-Part
Wir sind dankbar euch zu haben, wohin wir auch gehen

[Intro]
Em-Part 

[VERSE]
Em-Part
Würde sogar bleiben, gut gefällt's mir hier bei dir
Und irgendwann bleib ich vielleicht für immer hier
C-Part
Doch ich muss gehen, denn die Jungs warten irgendwo da vorn
Am-Part
Hab keine Antwort auf die Frage nach dem Sinn


        [CHORUS]
            C-Part                   Am-Part
        Man geht, und man geht immer wieder,                          
                             Em-Part
        Doch niemals einfach so


[VERSE]
Em-Part
Hab dich geliebt mehr als alles auf der Welt
Ich hab das oft versucht, fand nirgendwo für immer Halt
C-Part
Doch wenn ich geh, sag nicht ich mach es mir zu leicht
Am-Part
Keine meiner Wunden ist je ganz verheilt


        [CHORUS]
            C-Part                   Am-Part
        Man geht, und man geht immer wieder
                             Em-Part
        Doch niemals einfach so
            C-Part                   Am-Part
        Man geht, und man geht immer wieder
        _____________________
        Doch niemals einfach so


[SOLO]
   Em
E|---------------|--------------|--------------|-------------|
B|-----------8---|----------8---|----------8---|----------8--|
G|--9-9--7h9---9-|-9-9--7h9-----|-9-9--7h9---9-|-9-9--7h9----|
D|---------------|--------------|--------------|-------------|
A|---------------|--------------|--------------|-------------|
E|---------------|--------------|--------------|-------------|

   C                              Am
E|---------------|--------------|--------------|--------------|
B|-----------8---|--------------|----------8---|--------------|
G|--9-9--7h9---9-|-9-9--7h9-7---|-9-9--7h9---9-|-9-9--7h9-7h9-|  
D|---------------|--------------|--------------|--------------|
A|---------------|--------------|--------------|--------------|
E|---------------|--------------|--------------|--------------|

   Em   C Am
E|------7-------7----|
B|---(8)--8---8---8--|
G|--9-------9--------| 8x
D|-------------------|
A|-------------------|
E|-------------------|
    

        [CHORUS]
            C                        Am
        Man geht, und man geht immer wieder
                             Em                  Em
        Doch niemals einfach so, niemals einfach so
                             C                   Am
        Doch niemals einfach so, niemals einfach so
                             Em                  Em
        Doch niemals einfach so, niemals einfach so
                             Em                  Em
        ___________________________________________
                            C                   Am   
 Man geht niemals einfach so, niemals einfach so     

Em   

            
            
Suggest correction
Creating personal tab
Creating personal tab
You can edit any tab online and save it as your Personal.

You can edit, replace or remove any tab part or add personal notes – all changes will be seen only by you.

Personal tabs can be accessed anytime from any device, even offline.
Learn more »
Give kudos to tab author, rate the tab!
1 2 3 4 5
comments
print report bad tab
guest
You may want to rate the tab now too:
select rating
Wanna post a correction for this tab? Suggest correction