Oops, an error
Loading. Please wait.

Blanko tab

1,649 views 1 this week
no commentswrite comment
1 2 3 4 5
x 9
add to favorites
×
Save as Personal and add changes to this tab that will be seen only by you. Learn more ›
×
You can save this tab as Personal to edit and correct it or add notes. All changes will be seen only by you. Learn more »
launch autoscroll
font size
0
reset
how to read this tab
guitar tuner
edit
Autoscroll
slow
fast
+/-
esc
set tempo
stop
Author
Title             : Blanko
Artist            : Session Road

Ear Tabber        :Mark Jesson Galera
Friendster        :magnificoboy_00@yahoo.com 
                  :boybassista@yahoo.com

Contact No.       :09198408399

School            : Lorma Colleges Carlatan San Fernando City
Course            : Bachelor Science In Nursing
DAte of tab       : August  2007 


Intro:
e---------------------------------|
b---------------------------------|
g---------------999-1010----------|
D--7777-66------999-999-(2x)------|
A--7777-77-(2x)-777-777-----------|
E--5555-55------------------------|


-------
Verse 1|
-------

  Blanko...               walang lamang..
e----------------------|----------------|
b----------------------|----------------|
g-----999999999--------|---66666666-----|
D-----999999999--------|---66666666-----|
A-----777777777--------|---44444444-----|
E----------------------|----------------|

Blanko...           bulag at parang bang..
e----------------------|----------------|
b----------------------|----------------|
g-----999999999--------|---66666666-----|
D-----999999999--------|---66666666-----|
A-----777777777--------|---44444444-----|
E----------------------|----------------|
 
Blanko...               walang halong...blanko
e----------------------|----------------|
b----------------------|----------------|
g----------------------|----------------|
D-----777777777--------|---77777777-----|
A-----777777777--------|---77777777-----|
E-----555555555--------|---55555555-----|


Refrain 

Pikit....   matang...    sumusunod             
e---------|-------------|----------------|
b---------|-------------|----------------|
g---------|-----9999----|----------------|
D---777---|-----9999----|---444----------|
A---777---|-----7777----|---444----------|
E---555---|-------------|---222----------|

at hindi.. makaramdam            mula...ika'y
e---------|-------------|-------|-----|-------|
b---------|-------------|-------|-----|-------|
g---666---|-------------|-------|-----|-------|
D---666---|---444-------|---777-|--44-|-77----|
A---444---|---444-------|---777-|--44-|-77----|
E---------|---222-------|---555-|--22-|-55----|

Verse 2: Same as Verse 1:

Refrain:
Chorus:

Lryics: 

-------
Verse 1|
-------

Blanko
walang laman ang isip ko
Blanko
bulag at para bang tuliro
Blanko
walang halong biro
Blanko

-------
Verse 2|
-------

Blanko
di alam kung saan magtatagpo
Blanko
bumabalik na naman sa iyo
Blanko
pangarap na sadyang totoo
Blanko…

-------
Refrain|
-------
Pikit matang sumusunod
Sa yakap mo nalulunod
At hindi makaramdam
Mula nung ika’y nagpaalam

-------
Verse 2| The same as verse 1
-------

Blanko
sabik sa alaala mo
Blanko
di sinasadyang maging ganito
Blanko
nananaginip pang palayo
Blanko

Blanko
limilipad sumasaiyo
Blanko
inaalay lahat ng ito
Blanko
patawad sa kahinaan ko
Blanko…

Refrain:
Chorus:
Outro:

Blanko(Blanko)
Blanko(Blanko)
Blnanko(Blanko)
Suggest correction
Creating personal tab
Creating personal tab
You can edit any tab online and save it as your Personal.

You can edit, replace or remove any tab part or add personal notes – all changes will be seen only by you.

Personal tabs can be accessed anytime from any device, even offline.
Learn more »
comments
print report bad tab
guest
You may want to rate the tab now too:
select rating
Wanna post a correction for this tab? Suggest correction