Oops, an error
Loading. Please wait.

Hiram tab

467 views 3 this week
no commentswrite comment
1 2 3 4 5
3 more votes to show rating
add to favorites
×
Save as Personal and add changes to this tab that will be seen only by you. Learn more ›
×
You can save this tab as Personal to edit and correct it or add notes. All changes will be seen only by you. Learn more »
launch autoscroll
font size
0
reset
how to read this tab
guitar tuner
edit
Autoscroll
slow
fast
+/-
esc
set tempo
stop
Title		: Hiram
Artist		: Session road
Album		: Bakit hindi

Ear Tabber	: Walter Michael De la Cruz
Email add 1	: Walterfdelacruz@yahoo.com
Email add 2	: Michaelfdelacruz@yahoo.com
Email add 3	: WalterKarla1724@yahoo.com

School		: Saint Louis University BAguio City
DAte of tab	: August 7,2006

Session road is back with their second album entitled
"Bakit Hindi". The 1st single is Blanko. pero mas gusto ko tong
song nila na to. Siguro magugustuhan nyo din pag napakinggan nyo.
Catchy kase unt tono ng kantang ito. im sure magiging hit ang song na to.
Hope you'll enjoy.


----------------
StANDARD TUNING |
----------------


-------
Intro 1|
-------


Guitar 1: Lead guitar

e|------------------|--------------------|
B|------------------|--------------------|
G|------11-11--8-8--|------11-11--8-8----|
D|-9-9--------------|--9-9---------------|
A|------------------|--------------------|
E|------------------|--------------------|


Guitar 2: Acoustic guitar

e|-2--2--2--2--2--2--2--2--2--2--2--2--2-|
B|-2--2--2--2--2--2--2--2--2--2--2--2--2-|
G|-4--4--4--4--4--4--4--4--4--4--4--4--4-|
D|-4--4--4--4--4--4--4--4--4--4--4--4--4-|
A|-2--2--2--2--2--2--2--2--2--2--2--2--2-|
E|---------------------------------------|

Guitar 1: Lead guitar

e|------9-9-------------|-----9-9--------------------|
B|----------11-11-------|---------11-11--------------|
G|-8-8------------11-11-|-8-8-----------11-11--------|
D|----------------------|----------------------------|
A|----------------------|----------------------------|
E|----------------------|----------------------------|


Guitar 2: Acoustic guitar

e|-6--6--6--6--6--6--6--6--6--6--6--6--6--6--6-------|
B|-7--7--7--7--7--7--7--7--7--7--7--7--7--7--7-------|
G|-8--8--8--8--8--8--8--8--8--8--8--8--8--8--8-------|
D|-8--8--8--8--8--8--8--8--8--8--8--8--8--8--8-------|
A|-6--6--6--6--6--6--6--6--6--6--6--6--6--6--6-------|
E|---------------------------------------------------|

Guitar 1: Lead guitar


e|------------------|--------------------|
B|------------------|--------------------|
G|------11-11--8-8--|------11-11--8-8----|
D|-9-9--------------|--9-9---------------|
A|------------------|--------------------|
E|------------------|--------------------|


Guitar 2: Acoustic guitar

e|-2--2--2--2--2--2--2--2--2--2--2--2--2-|
B|-2--2--2--2--2--2--2--2--2--2--2--2--2-|
G|-4--4--4--4--4--4--4--4--4--4--4--4--4-|
D|-4--4--4--4--4--4--4--4--4--4--4--4--4-|
A|-2--2--2--2--2--2--2--2--2--2--2--2--2-|
E|---------------------------------------|

Guitar 1: Lead guitar


e|------9-9-------------|-----9-9--------------------|
B|----------11-11-------|---------11-11--------------|
G|-8-8------------11-11-|-8-8-----------11-11--------|
D|----------------------|----------------------------|
A|----------------------|----------------------------|
E|----------------------|----------------------------|


Guitar 2: Acoustic guitar

e|-6--6--6--6--6--6--6--6--6--6--6--6--6--6--6-------|
B|-7--7--7--7--7--7--7--7--7--7--7--7--7--7--7-------|
G|-8--8--8--8--8--8--8--8--8--8--8--8--8--8--8-------|
D|-8--8--8--8--8--8--8--8--8--8--8--8--8--8--8-------|
A|-6--6--6--6--6--6--6--6--6--6--6--6--6--6--6-------|
E|---------------------------------------------------|

-------
Intro 2|
-------

Guitar 1: Lead guitar


e|----------------------------------------------------|
B|----------------------------------------------------|
G|--------------------------------------------8888----|
D|-99999999999999-11-11-11-11-99999999999999----------|
A|----------------------------------------------------|
E|----------------------------------------------------|


Guitar 2: Acoustic guitar

e|-2--2--2--2--2--2--2--2--2--2--2--2--2-|
B|-2--2--2--2--2--2--2--2--2--2--2--2--2-|
G|-4--4--4--4--4--4--4--4--4--4--4--4--4-|
D|-4--4--4--4--4--4--4--4--4--4--4--4--4-|
A|-2--2--2--2--2--2--2--2--2--2--2--2--2-|
E|---------------------------------------|

Guitar 1: Lead guitar


e|----------------------------------------------------------|
B|----------------------------------------------------------|
G|----------------------------------------------------------|
D|88888888-11-11-11-11-88888888888888--11-11-11-11-88888888-|
A|----------------------------------------------------------|
E|----------------------------------------------------------|

Guitar 2: Acoustic guitar

e|-6--6--6--6--6--6--6--6--6--6--6--6--6--6--6-------|
B|-7--7--7--7--7--7--7--7--7--7--7--7--7--7--7-------|
G|-8--8--8--8--8--8--8--8--8--8--8--8--8--8--8-------|
D|-8--8--8--8--8--8--8--8--8--8--8--8--8--8--8-------|
A|-6--6--6--6--6--6--6--6--6--6--6--6--6--6--6-------|
E|---------------------------------------------------|


-------
Verse 1|
-------


Guitar 1: Lead guitar


e|----------------------------------------------------|
B|----------------------------------------------------|
G|--------------------------------------------8888----|
D|-99999999999999-11-11-11-11-99999999999999----------|
A|----------------------------------------------------|
E|----------------------------------------------------|

Guitar 2: Acoustic guitar(one strum only)


e|-2--|
B|-2--|
G|-4--|
D|-4--|
A|-2--|
E|----|

Pagod na sa hiram

Guitar 1: Lead guitar


e|----------------------------------------------------------|
B|----------------------------------------------------------|
G|----------------------------------------------------------|
D|88888888888888-11-11-11-11-88888888888888--11-11-11-11----|
A|----------------------------------------------------------|
E|----------------------------------------------------------|


Guitar 2: Acoustic guitar (one strum only)

e|-6-|
B|-7-|
G|-8-|
D|-8-|
A|-6-|
E|---|

Walang patutunguhan


Guitar 1: Lead guitar


e|----------------------------------------------------|
B|----------------------------------------------------|
G|--------------------------------------------8888----|
D|-99999999999999-11-11-11-11-99999999999999----------|
A|----------------------------------------------------|
E|----------------------------------------------------|


Guitar 2: Acoustic guitar  (one strum only)


e|-2--|
B|-2--|
G|-4--|
D|-4--|
A|-2--|
E|----|

Nagsasabihin ba


Guitar 1: Lead guitar


e|----------------------------------------------------------|
B|----------------------------------------------------------|
G|----------------------------------------------------------|
D|88888888888888-11-11-11-11-88888888888888-----------------|
A|--------------------------------------------9999----------|
E|----------------------------------------------------------|

Guitar 2: Acoustic guitar (one strum only)


e|-6-|
B|-7-|
G|-8-|
D|-8-|
A|-6-|
E|---|

Makinig na lang sa hinala


----------------------------------
Strum na yung Acoustic guitar dito|
----------------------------------

Guitar 1: Lead guitar


e|----------------------------------------------------|
B|----------------------------------------------------|
G|--------------------------------------------8888----|
D|-99999999999999-11-11-11-11-99999999999999----------|
A|----------------------------------------------------|
E|----------------------------------------------------|

e|-2--2--2--2--2--2--2--2--2--2--2--2--2-|
B|-2--2--2--2--2--2--2--2--2--2--2--2--2-|
G|-4--4--4--4--4--4--4--4--4--4--4--4--4-|
D|-4--4--4--4--4--4--4--4--4--4--4--4--4-|
A|-2--2--2--2--2--2--2--2--2--2--2--2--2-|
E|---------------------------------------|

      At kung akala mo Ikaw lang ang nagagangamaba


Guitar 1: Lead guitar

e|----------------------------------------------------------|
B|----------------------------------------------------------|
G|----------------------------------------------------------|
D|88888888888888-11-11-11-11-88888888888888--11-11-11-11----|
A|----------------------------------------------------------|
E|----------------------------------------------------------|

Guitar 2: Acoustic guitar


e|-6--6--6--6--6--6--6--6--6--6--6--6--6--6--6-------|
B|-7--7--7--7--7--7--7--7--7--7--7--7--7--7--7-------|
G|-8--8--8--8--8--8--8--8--8--8--8--8--8--8--8-------|
D|-8--8--8--8--8--8--8--8--8--8--8--8--8--8--8-------|
A|-6--6--6--6--6--6--6--6--6--6--6--6--6--6--6-------|
E|---------------------------------------------------|


      Wag mong ikabahala  idilat mo ang iyong mata


Guitar 1: Lead guitar

e|----------------------------------------------------|
B|----------------------------------------------------|
G|--------------------------------------------8888----|
D|-99999999999999-11-11-11-11-99999999999999----------|
A|----------------------------------------------------|
E|----------------------------------------------------|

Guitar 2: Acoustic guitar

e|-2--2--2--2--2--2--2--2--2--2--2--2--2-|
B|-2--2--2--2--2--2--2--2--2--2--2--2--2-|
G|-4--4--4--4--4--4--4--4--4--4--4--4--4-|
D|-4--4--4--4--4--4--4--4--4--4--4--4--4-|
A|-2--2--2--2--2--2--2--2--2--2--2--2--2-|
E|---------------------------------------|

        Pansamantala lang ba


Guitar 1: Lead guitar


e|------------------|--------------------------------|
B|------------------|--------------------------------|
G|------------------|--------------------------------|
D|--88888888--------|--11-11-11-11-11-11-11-11-11----|
A|------------------|--------------------------------|
E|------------------|--------------------------------|


Guitar 2: Acoustic guitar


e|-666666666--------|-4--4--4--4--4--4--4--4--4------|
B|-777777777--------|-4--4--4--4--4--4--4--4--4------|
G|-888888888--------|-6--6--6--6--6--6--6--6--6------|
D|-888888888--------|-6--6--6--6--6--6--6--6--6------|
A|-666666666--------|-4--4--4--4--4--4--4--4--4------|
E|---------------------------------------------------|


   ang lahat ng         ito

-------
Chorus |
-------


Guitar 2: Acoustic guitar


e|-2-2-2-2-2-2-----|-2-2-2-2-2-2-----|
B|-2-2-2-2-2-2-----|-2-2-2-2-2-2-----|
G|-3-3-3-3-3-3-----|-3-3-3-3-3-3-----|
D|-4-4-4-4-4-4-----|-3-3-3-3-3-3-----|
A|-4-4-4-4-4-4-----|-4-4-4-4-4-4-----|
E|-2-2-2-2-2-2-----|-2-2-2-2-2-2-----|


    Hindi ko         alam,  Wag mong


e|-2-2-2-2-2----|----4-4-4-4-4-------|-4-4-4-4-4-4-----|
B|-2-2-2-2-2----|----4-4-4-4-4-------|-4-4-4-4-4-4-----|
G|-4-4-4-4-4----|----4-4-4-4-4-------|-6-6-6-6-6-6-----|
D|-4-4-4-4-4----|----6-6-6-6-6-------|-6-6-6-6-6-6-----|
A|-2-2-2-2-2----|----6-6-6-6-6-------|-4-4-4-4-4-4-----|
E|--------------|----4-4-4-4-4-------|-----------------|


   simulan          Mahihirapan ba ang talunan

e|-2-2-2-2-2-2-----|-2-2-2-2-2-2-----|
B|-2-2-2-2-2-2-----|-2-2-2-2-2-2-----|
G|-3-3-3-3-3-3-----|-3-3-3-3-3-3-----|
D|-4-4-4-4-4-4-----|-3-3-3-3-3-3-----|
A|-4-4-4-4-4-4-----|-4-4-4-4-4-4-----|
E|-2-2-2-2-2-2-----|-2-2-2-2-2-2-----|


   Tuwing ikay        mamasdan, Tuwing ikay

e|-2-2-2-2-2----|----4-4-4-4-4-------|-4-4-4-4-4-4-----|
B|-2-2-2-2-2----|----4-4-4-4-4-------|-4-4-4-4-4-4-----|
G|-4-4-4-4-4----|----4-4-4-4-4-------|-6-6-6-6-6-6-----|
D|-4-4-4-4-4----|----6-6-6-6-6-------|-6-6-6-6-6-6-----|
A|-2-2-2-2-2----|----6-6-6-6-6-------|-4-4-4-4-4-4-----|
E|--------------|----4-4-4-4-4-------|-----------------|


 hahagkan            Wala ka nang       mararamdaman

------------
Instrumental:|   F#-B2-Ebm
------------


-------
Verse 2| The same tab as verse 2
-------


Sa muling pagtatgpo
Magbabgo ba ang mundo
Sa aking paghihintay
Sumasambang di mabibigo

-------
Chorus |
-------


Guitar 2: Acoustic guitar


e|-2-2-2-2-2-2-----|-2-2-2-2-2-2-----|
B|-2-2-2-2-2-2-----|-2-2-2-2-2-2-----|
G|-3-3-3-3-3-3-----|-3-3-3-3-3-3-----|
D|-4-4-4-4-4-4-----|-3-3-3-3-3-3-----|
A|-4-4-4-4-4-4-----|-4-4-4-4-4-4-----|
E|-2-2-2-2-2-2-----|-2-2-2-2-2-2-----|


    Hindi ko         alam,  Wag mong


e|-2-2-2-2-2----|----4-4-4-4-4-------|-4-4-4-4-4-4-----|
B|-2-2-2-2-2----|----4-4-4-4-4-------|-4-4-4-4-4-4-----|
G|-4-4-4-4-4----|----4-4-4-4-4-------|-6-6-6-6-6-6-----|
D|-4-4-4-4-4----|----6-6-6-6-6-------|-6-6-6-6-6-6-----|
A|-2-2-2-2-2----|----6-6-6-6-6-------|-4-4-4-4-4-4-----|
E|--------------|----4-4-4-4-4-------|-----------------|


   simulan          Mahihirapan ba ang talunan

e|-2-2-2-2-2-2-----|-2-2-2-2-2-2-----|
B|-2-2-2-2-2-2-----|-2-2-2-2-2-2-----|
G|-3-3-3-3-3-3-----|-3-3-3-3-3-3-----|
D|-4-4-4-4-4-4-----|-3-3-3-3-3-3-----|
A|-4-4-4-4-4-4-----|-4-4-4-4-4-4-----|
E|-2-2-2-2-2-2-----|-2-2-2-2-2-2-----|


   Tuwing ikay        mamasdan, Tuwing ikay

e|-2-2-2-2-2----|----4-4-4-4-4-------|-4-4-4-4-4-4-----|
B|-2-2-2-2-2----|----4-4-4-4-4-------|-4-4-4-4-4-4-----|
G|-4-4-4-4-4----|----4-4-4-4-4-------|-6-6-6-6-6-6-----|
D|-4-4-4-4-4----|----6-6-6-6-6-------|-6-6-6-6-6-6-----|
A|-2-2-2-2-2----|----6-6-6-6-6-------|-4-4-4-4-4-4-----|
E|--------------|----4-4-4-4-4-------|-----------------|


 hahagkan            Wala ka bang       nararamdaman

e|-2-2-2-2-2-2-2-2-2-2-2-2-2-2-2--|
B|-2-2-2-2-2-2-2-2-2-2-2-2-2-2-2--|
G|-3-3-3-3-3-3-3-3-3-3-3-3-3-3-3--|
D|-4-4-4-4-4-4-4-4-4-4-4-4-4-4-4--|
A|-4-4-4-4-4-4-4-4-4-4-4-4-4-4-4--|
E|-2-2-2-2-2-2-2-2-2-2-2-2-2-2-2--|

-------
Bridge:|
-------

Chords used:

B2: X24422
C#: X46644
A : 577XXX
E : 0799Xx
C : X355XX
G : 355XXX

Bbm     B2         F#
At sa tuwing babalikan

Bbm       B2       F#-C#
Nawawala na sa katwiran

A           E
Ooohhhwwwwoooohhhhh

A           E
Ooohhhwwwwoooohhhhh


C           G     C#
Ooohhhwwwwoooohhhhh

-------
Chorus | Pure guitar lang
-------


Guitar 2: Acoustic guitar


e|-2-2-2-2-2-2-----|-2-2-2-2-2-2-----|
B|-2-2-2-2-2-2-----|-2-2-2-2-2-2-----|
G|-3-3-3-3-3-3-----|-3-3-3-3-3-3-----|
D|-4-4-4-4-4-4-----|-3-3-3-3-3-3-----|
A|-4-4-4-4-4-4-----|-4-4-4-4-4-4-----|
E|-2-2-2-2-2-2-----|-2-2-2-2-2-2-----|


    Hindi ko         alam,  Wag mong


e|-2-2-2-2-2----|----4-4-4-4-4-------|-4-4-4-4-4-4-----|
B|-2-2-2-2-2----|----4-4-4-4-4-------|-4-4-4-4-4-4-----|
G|-4-4-4-4-4----|----4-4-4-4-4-------|-6-6-6-6-6-6-----|
D|-4-4-4-4-4----|----6-6-6-6-6-------|-6-6-6-6-6-6-----|
A|-2-2-2-2-2----|----6-6-6-6-6-------|-4-4-4-4-4-4-----|
E|--------------|----4-4-4-4-4-------|-----------------|


   simulan          Mahihirapan ba ang talunan

e|-2-2-2-2-2-2-----|-2-2-2-2-2-2-----|
B|-2-2-2-2-2-2-----|-2-2-2-2-2-2-----|
G|-3-3-3-3-3-3-----|-3-3-3-3-3-3-----|
D|-4-4-4-4-4-4-----|-3-3-3-3-3-3-----|
A|-4-4-4-4-4-4-----|-4-4-4-4-4-4-----|
E|-2-2-2-2-2-2-----|-2-2-2-2-2-2-----|


   Tuwing ikay        mamasdan, Tuwing ikay

e|-2-2-2-2-2----|----4-------|-4--|-2---|
B|-2-2-2-2-2----|----4-------|-4--|-2---|
G|-4-4-4-4-4----|----4-------|-6--|-3---|
D|-4-4-4-4-4----|----6-------|-6--|-4---|
A|-2-2-2-2-2----|----6-------|-4--|-4---|
E|--------------|----4-------|----|-2---|


 hahagkan        Wala ka nang mararamdaman


For comments send me a message in Friendster.

E-mail add 1: Walterfdelacruz@yahoo.com
E-mail add 2: Michaelfdelacruz@yahoo.com

And u Can also add me as your friend Or send me a testimonial.hehehe
God bless!


Thanks.
Rock oUt.
Walter Rocks Ultimate Guitar!

            
            
Suggest correction
Creating personal tab
Creating personal tab
You can edit any tab online and save it as your Personal.

You can edit, replace or remove any tab part or add personal notes – all changes will be seen only by you.

Personal tabs can be accessed anytime from any device, even offline.
Learn more »
Give kudos to tab author, rate the tab!
1 2 3 4 5
comments
print report bad tab
guest
You may want to rate the tab now too:
select rating
Wanna post a correction for this tab? Suggest correction