Oops, an error
Loading. Please wait.

Suntok Sa Buwan bass

version 3
version 3

Whole song

Interactive

490 views 6 this week
2 commentsread comments
1 2 3 4 5
x 4
add to favorites
×
Save as Personal and add changes to this tab that will be seen only by you. Learn more ›
×
You can save this tab as Personal to edit and correct it or add notes. All changes will be seen only by you. Learn more »
launch autoscroll
font size
0
reset
guitar tuner
edit
Autoscroll
slow
fast
+/-
esc
set tempo
stop
-------------------------------------------------------------------------------
                             Suntok sa Buwan - Session road
-------------------------------------------------------------------------------

Tabbed by: Januel van christian
E-mail: januelvanchristian@yahoo.com/gmail.com

Tuning: Standard

Intro :
[[ A   G-A-C#-D-C#  G(2x)  D      C#-B (2x) ]] 2X  do this in the last C#-B
G|----------------------|------------------------|---------------------------|
D|----------------------|------------------------|----------7----------------|
A|--------4h5p4---------|--5-55-tap-4-tapx-------|-5-tap-4/5-5-7/9-7\--------|
E|-5-5-3h5----------3---|---5------x-7----5h7----|---------------------------|

Verse :
   A-A G-A  A-A Ax A      A    ( D     C#-B 2x )
G|-----------------------------|-------------------------------------|
D|-----------------------------|-------------------------------------|
A|-----------------------------|-55-tap-4-tapx-----------------------| ( 2x )
E|-5-5-3-5--5-5-5x-5-tapx-5h7--|---------7----5h7--------------------|

Refrain :
   B     B   C# D     D   C# B     B   C# D   D                   
G|---------------------------------------------------------------------------|
D|---------------------------------------------------------------------------|
A|-2-tap--2-2-4-5-tap--5-5-4-2-tap--2-2-4-5-5-5x-5-tapx-5h7------------------|
E|-------2-2----------5-5----------2-2---------------------------------------|

Chorus :
   A--A A--Ab GB--Gb Gb Gb-E--E E--Eb D
G|-------------------------------------------------------------------|
D|-------------------------------------------------------------------|
A|-------------------7\-7-7-6-5-tap-5-5-tapx-5h----------------------| ( 2x )
E|-5--5-5-4-2--2-2-2/--7-7-------------------------------------------|

REPEAT :
           Intro -- Verse -- Refrain -- Chorus

Instrumental :
1st part
   A-A-A-A-A-A-A-A   C#-C#-C#-C#-C#-C#-C#-C#    D-D-D-D-D-D-D-D
G|---------------------------------------------------------------------------|
D|---------------------------------------------------------------------------|
A|-------------------44444-44444-tap-4-5(running 4counts)/-------------------|
E|-55555-55555-tap-5---------------------------------------------------------|

2nd part                               3rd Part   
   F#  E   D   Db  B   A
G|-----------------------|--do-the--|----------------------------------------|
D|-----------------------|-1st-part-|--12-(running-4counts)\-----------------|
A|-999-777-555-444-222-0-|--again---|----------------------------------------|
E|-----------------------|----------|----------------------------------------|

Refrain :
   B D B   D D D D D D D D  D Db--B--A--B-C#--D--E--F#-G#-A
G|---------------------------------------------------------------------------|
D|--------------------------------------------------44-66-77\----------------|
A|-2-5-2-2/5-5-5-5-5-5-5-5/\55-44----------44-55-77--------------------------|
E|--------------------------------77-55-77-----------------------------------|

Repeat 1st part of the Chorus then :

   A--A A A-Gb-G#-A A-A E -F#-G#-A-Ab-D (2x) keep running til the last part
G|-------------------------------------|-------------------------------------|
D|-------------------------------------|-------------------------------------|
A|--------------------7-9-11-12-11--5--|--7-9-12-----------------------------|
E|-5--5-5-5-2-4-5-5--5-----------------|-------------------------------------|

Last Part
   D Db B A B A
G|-------------------|
D|-------------------|
A|--5-4-2-0-2/12-----|
E|-------------------|

|THE UPPER CHORDS IS ONLY A PATTERN
| tap-just tap the string
| /  slide up
| \  slide down
| h  hammer-on
| p  pull-off
| ~  vibrato
| +  harmonic
| x  Mute note
===============================================================================

    This is my BASS cover, JUST A COVER .. hope it helps ..please kindly
    rate it thanks :))

    pasensya na sa dulo medyo tinamad na ksi ako haha.. :)
Suggest correction
Creating personal tab
Creating personal tab
You can edit any tab online and save it as your Personal.

You can edit, replace or remove any tab part or add personal notes – all changes will be seen only by you.

Personal tabs can be accessed anytime from any device, even offline.
Learn more »
comments
print report bad tab
2 comments total.
0 reply
alicanteshamm 12 Dec 27, 2015 11:22 PM

nice tab :)

0 reply
tinhdovan15274745 10 Dec 30, 2015 08:44 PM

Aba Malupet :)
Thanks po kuya :)

guest
You may want to rate the tab now too:
select rating
Wanna post a correction for this tab? Suggest correction