Oops, an error
Loading. Please wait.

Breath In Breath Out Tab

1,303 views 1 this week
no commentswrite comment
1 2 3 4 5
excellent!
x 1
add to favorites
launch autoscroll
font size
0
reset
how to read this tab
guitar tuner
Tab Pro tools
  • play this tab
  • loop segment
  • change instrument
  • show fretboard
  • metronome
Autoscroll
slow
fast
+/-
esc
set tempo
stop
Contributor
Difficulty
Tuning
intermediate
D A D G B E
INTRO (part 1)

Electric 1+2
 (hold)
E|----|
B|----|
G|----|
D|-11-|
A|-11-|
D|-11-|

INTRO (part 2)

Electric 1+2

E|------------------------------|
B|------------------------------|
G|---------8---9/13-------6-9-8-|
D|-11-9--6-x-7-x-x---11-9-x-x-x-|
A|-11-9--6-6-7-7/11--11-9-4-7-6-|
D|-11-9--6---7-------11-9-------|

VERSE (part 1)

Electric 2
(x8 each)
E|-------------|
B|-------------|
G|-------------|
D|-------------|
A|-------------|
D|-11-10-11-13-|

VERSE (part 2)

Electric 1
Violin
E|----------------------------------------------------|
B|----------------------------------------------------|
G|-------13-14-11-16-13----------------13-14-13-11----|
D|-11-14----------------14-13-11-------------------14-|
A|-------------------------------11-16----------------|
D|----------------------------------------------------|

Electric 2
(mix in mutes and strums)
E|-------------|
B|-------------|
G|-------------|
D|-------------|
A|-------------|
D|-11-10-11-13-|

CHORUS

Electric 1
(doubles each)
E|--------------12-11-------------------|
B|-141214121412-------14-x3-14----10-12-|
G|-----------------------------13-------|
D|--------------------------------------|
A|--------------------------------------|
D|--------------------------------------|

Electric 2

E|--------|
B|--------|
G|--------|
D|-10-4-7-|
A|-10-4-7-|
D|-10-4-7-|

INTRO (part 2)

PRE-VERSE

Electric 1+2

E|-----|
B|-----|
G|-----|
D|-4-6-|
A|-4-6-|
D|-4-6-|

VERSE (part 2)

Play Verse (part 2) again but add...

Electric 3

E|------------------|
B|------------------|
G|-13-11-13-9-13-17-|
D|-x--x--x--x-x--x--|
A|-11-9--11-7-11-15-|
D|------------------|

PRE-CHORUS

CHORUS

BRIDGE (part 1)

Electric 2

E|-------------------|
B|-------------------|
G|-------------------|
D|-2-6-11-7-2-6-7-10-|
A|-2-6-11-7-2-6-7-10-|
D|-2-6-11-7-2-6-7-10-|

BRIDGE (part 2)

Electric 2

E|----------------------|
B|----------------------|
G|----------------------|
D|----------------------| x2
A|----------------16-15-|
D|-11-16-14-18-19-------|

BRIDGE (part 3)

Electric 1

E|--------------------|
B|--------------------|
G|-6-11-9-13-14-18-17-|
D|-x-x--x-x--x--x--x--|
A|-4-9--7-11-12-16-15-|
D|--------------------|

BRIDGE (part 4)

Electric 1

E|--------------------|
B|--------------------|
G|-6-11-9-13-14-18-17-|
D|-x-x--x-x--x--x--x--|
A|-4-9--7-11-12-16-15-|
D|--------------------|

Electric 2

E|-----------|
B|-----------|
G|-----------|
D|-11-2-7-10-|
A|-11-2-7-10-|
D|-11-2-7-10-|

PRE-CHORUS

Electric 1
(double each note)
E|----------------------|
B|----------------------|
G|----------------9-8-9-|
D|-11-9-11-9-11-9-------|
A|----------------------|
D|----------------------|

CHORUS

CHORUS (with variation, listen to song to know when to add it in)

Electric 1

E|----------------|
B|----------------|
G|-13-14-16-13-11-|
D|-x--x--x--x---x-|
A|-11-12-14-11--9-|
D|----------------|

comments
We did not receive enough feedback on this tab! Please rate:
print report bad tab
1 2 3 4 5
I want to post or [tab]
guest
You may want to rate the tab now too:
select rating
Please do not post tabs as comments. Select "correction" instead!