Oops, an error
Loading. Please wait.

Dads Song Tab

1,713 views 3 this week
no commentswrite comment
1 2 3 4 5
please rate
add to favorites
launch autoscroll
font size
0
reset
how to read this tab
guitar tuner
Tab Pro tools
  • play this tab
  • loop segment
  • change instrument
  • show fretboard
  • metronome
×
Best way to learn
"Dads Song"
Autoscroll
slow
fast
+/-
esc
set tempo
stop
Contributor
Difficulty
intermediate
INTRO/VERSE (part 1)

Electric 1
Clean
E|----------------------------------|
B|------10--10--10-------10--10--10-|
G|----9---9---9--------9----9---9---|
D|-11---------------12--------------|
A|----------------------------------|
E|----------------------------------|

VERSE (part 2)

Electric 1
Clean
E|----------------------------------|
B|------10--10--10-------10--10--10-|
G|----9---9---9--------9----9---9---|
D|-11---------------12--------------|
A|----------------------------------|
E|----------------------------------|

Electric 2
Violin
E|---------------------------------------------|
B|-10-12-14-15-17-17r15-14-12-14h15r14-12-10---|
G|-------------------------------------------9-|
D|---------------------------------------------|
A|---------------------------------------------|
E|---------------------------------------------|

-------------------------------------------------|
--10-12-14-12-14-15-14-12-14h15r14-12-10---------|
-----------------------------------------9-------|
-------------------------------------------9-6-7-|
-------------------------------------------------|
-------------------------------------------------|

CHORUS 1

Electric 1
Clean
E|-------------------|
B|--------------6----|
G|-14-9-10-11-7-7-14-|
D|-14-9-10-11-7-7-14-|
A|-12-7-8--9--5-5-12-|
E|-------------------|

POST

Electric 1
Clean
E|----------------------------------|
B|------10--10--10-------10--10--10-|
G|----9---9---9--------9----9---9---|
D|-11---------------12--------------|
A|----------------------------------|
E|----------------------------------|

Electric 2
Violin
E|---------------------------------------------|
B|-10-12-14-15-17-17r15-14-12-14h15r14-12-10---|
G|-------------------------------------------9-|
D|---------------------------------------------|
A|---------------------------------------------|
E|---------------------------------------------|

-------------------------------------------------|
--10-12-14-12-14-15-14-12-14h15r14-12-10---------|
-----------------------------------------9-------|
-------------------------------------------9-6-7-|
-------------------------------------------------|
-------------------------------------------------|

Electric 3
Violin
E|-----5---5---5----5---5---5-|
B|---5---5---5-----5---5---5--|
G|-6-------------7------------|
D|----------------------------|
A|----------------------------|
E|----------------------------|

VERSE

Electric 1
Clean
E|----------------------------------|
B|------10--10--10-------10--10--10-|
G|----9---9---9--------9----9---9---|
D|-11---------------12--------------|
A|----------------------------------|
E|----------------------------------|

Electric 2
Violin
E|---------------------------------------------|
B|-10-12-14-15-17-17r15-14-12-14h15r14-12-10---|
G|-------------------------------------------9-|
D|---------------------------------------------|
A|---------------------------------------------|
E|---------------------------------------------|

-------------------------------------------------|
--10-12-14-12-14-15-14-12-14h15r14-12-10---------|
-----------------------------------------9-------|
-------------------------------------------9-6-7-|
-------------------------------------------------|
-------------------------------------------------|

Electric 3

E|-----------|
B|-----------|
G|-9-11-14-7-|
D|-9-11-14-7-|
A|-7-9--12-5-|
E|-----------|

PRE-CHORUS

Electric 1+3

E|------|
B|------|
G|-11-7-|
D|-11-7-|
A|-9--5-|
E|------|

Electric 2
Violin
E|-------------------14-12-------------------------------14-12------------|
B|-10-10-12-14-12-14-------14-12-10----10-10-12-14-12-15-------14-12-10r9-|
G|----------------------------------11------------------------------------|
D|------------------------------------------------------------------------|
A|------------------------------------------------------------------------|
E|------------------------------------------------------------------------|

CHORUS 1 (variation)

Electric 1
Clean (picked)
E|-------------------|
B|--------------6----|
G|-14-9-10-11-7-7-14-|
D|-14-9-10-11-7-7-14-|
A|-12-7-8--9--5-5-12-|
E|-------------------|

Electric 2+3
Mild Distortion
E|-------------------|
B|--------------6----|
G|-14-9-10-11-7-7-14-|
D|-14-9-10-11-7-7-14-|
A|-12-7-8--9--5-5-12-|
E|-------------------|

BRIDGE (part 1)

Electric 1
Violin (hold)
E|-------|
B|-------|
G|-------|
D|-12-11-|
A|-------|
E|-------|

Electric 3

E|----------------------------------------|
B|-12-14-15-15-15-14-14-------17-17-17-17-|
G|----------------------14-14-------------|
D|----------------------------------------|
A|----------------------------------------|
E|----------------------------------------|

BRIDGE (part 2)

Electric 2
Violin
E|-------------------14-12-------------------------------14-12------------|
B|-10-10-12-14-12-14-------14-12-10----10-10-12-14-12-15-------14-12-10r9-|
G|----------------------------------11------------------------------------|
D|------------------------------------------------------------------------|
A|------------------------------------------------------------------------|
E|------------------------------------------------------------------------|

Electric 3

E|-----------------|
B|-----------------|
G|---11-7---11-7-9-|
D|-9-11-7-9-11-7-9-|
A|-9-9--5-9-9--5-7-|
E|-7------7--------|

CHORUS 1

DISTORTED CHORUS

OUTRO

Electric 1-3

E|-------------|
B|---------6---|
G|-------7-7---|
D|-7-9-4-7-7-7-|
A|-7-9-4-5-5-7-|
E|-5-7-2-----5-|
comments
We did not receive enough feedback on this tab! Please rate:
print report bad tab
1 2 3 4 5
I want to post or [tab]
guest
You may want to rate the tab now too:
select rating
Please do not post tabs as comments. Select "correction" instead!