Oops, an error
Loading. Please wait.

Dream Catchers Tab

3,936 views 15 this week
no commentswrite comment
1 2 3 4 5
please rate
add to favorites
launch autoscroll
font size
0
reset
how to read this tab
guitar tuner
Autoscroll
slow
fast
+/-
esc
set tempo
stop
Help us to improve Ultimate-Guitar.com Take our survey!
×
Author
Difficulty
intermediate
INTRO

Electric 1
(picked)
E|----|
B|----|
G|-8--|
D|-10-|
A|-11-|
E|----|

Electric 2

E|---------------------------------|
B|---------------------------------|
G|-------10------------------------|
D|-11-13----10-11-x5-11-10-8-------|
A|---------------------------10-11-|
E|---------------------------------|

VERSE (part 1)

Electric 1
(picked)
E|----|
B|----|
G|-8--|
D|-10-|
A|-11-|
E|----|

Electric 2

E|----------|
B|----------|
G|-6-8-10-8-|
D|-6-8-10-8-|
A|-4-6-8--6-|
E|----------|

VERSE (part 2)

Electric 1
(picked)
E|----|
B|----|
G|-8--|
D|-10-|
A|-11-|
E|----|

Electric 2
(palm mute)
E|----------|
B|----------|
G|-6-8-10-8-|
D|-6-8-10-8-|
A|-4-6-8--6-|
E|----------|

PRE-CHORUS

Electric 1
       Section 1                  Section 2
E|------------------------- ------------------------|
B|-14r13r11-14r13r11-14r11- 13r11----13r11----13----|
G|------------------------- ------13-------13----13-|
D|------------------------- ------------------------|
A|------------------------- ------------------------|
E|------------------------- ------------------------|
      Section 3
------------------------|
--11r9r8-11r9r8-11r8-x2-|
------------------------|
------------------------|
------------------------|
------------------------|

 play section 2 then 1 then 3.

Electric 2

E|---------------|
B|---------------|
G|-6-10-8-10-6-8-|
D|-6-10-8-10-6-8-|
A|-4-8--6-8--4-6-|
E|---------------|

CHORUS (part 1)

Electric 1

E|----------|
B|----------|
G|-13-17-15-|
D|-x--x--x--|
A|-11-15-13-|
E|----------|

Electric 2

E|--------|
B|--------|
G|-6-10-8-|
D|-6-10-8-|
A|-4-8--6-|
E|--------|

CHORUS (part 2)

Electric 1

E|-------------------------------------------------|
B|-14r13r11-14r13r11-14r11-13r11----13r11----13----|
G|-------------------------------13-------13----13-|
D|-------------------------------------------------|
A|-------------------------------------------------|
E|-------------------------------------------------|

------------------------|
--11r9r8-11r9r8-11r8-x2-|
------------------------|
------------------------|
------------------------|
------------------------|

POST

Electric 1
(picked)
E|----|
B|----|
G|-8--|
D|-10-|
A|-11-|
E|----|

VERSE (part 1)

Electric 1
(picked)
E|----|
B|----|
G|-8--|
D|-10-|
A|-11-|
E|----|

Electric 2

E|-------|
B|-------|
G|---6---|
D|-6-6-8-|
A|-6-4-8-|
E|-4---6-|

VERSE (part 2)

Electric 1
(picked)
E|----|
B|----|
G|-8--|
D|-10-|
A|-11-|
E|----|

Electric 2

E|----------|
B|----------|
G|-6-8-10-8-|
D|-6-8-10-8-|
A|-4-6-8--6-|
E|----------|

PRE-CHORUS

CHORUS

CHORUS VARIATION

Electric 1

E|-------------|
B|-------------|
G|-13-17-12-13-|
D|-x--x--x--x--| THEN...
A|-11-15-10-11-|
E|-------------|

PLAY SECTION 2 THEN 1 THEN 3

      Section 1                  Section 2
------------------------- ------------------------|
-14r13r11-14r13r11-14r11- 13r11----13r11----13----|
------------------------- ------13-------13----13-|
------------------------- ------------------------|
------------------------- ------------------------|
------------------------- ------------------------|
      Section 3
------------------------|
--11r9r8-11r9r8-11r8-x2-|
------------------------|
------------------------|
------------------------|
------------------------|

Electric 2

E|-----------------|
B|-----------------|
G|-6-10---6-6-10-8-|
D|-6-10-6-6-6-10-8-|
A|-4-8--6-4-4-8--6-|
E|------4----------|

BRIDGE (part 1)

Electric 1

E|-----------------------|
B|-----------------------|
G|-10-12-13-15--10-8-6-8-|
D|-x--x--x--x---10-x-x-x-|
A|-8--10-11-13--8--6-4-6-|
E|-----------------------|

Electric 2

E|--------------------|
B|--------------------|
G|-10-12-----10-8-6-8-|
D|-10-12-6-8-10-8-6-8-|
A|-8--10-6-8-8--6-4-6-|
E|-------4-6----------|

BRIDGE (part 2)

Electric 1

E|----------------------------|
B|----------------------------|
G|-10-12-13-15-17--10-8-13-12-|
D|-x--x--x--x--x---x--x-x--x--|
A|-8--10-11-13-15--8--6-11-10-|
E|----------------------------|

Electric 2

E|-------------------------|
B|-------------------------|
G|-10-12--------10-8-13-12-|
D|-10-12-6-8-10-10-8-13-12-|
A|-8--10-6-8-10-8--6-11-10-|
E|-------4-6-8-------------|

CHORUS (just E2 single strum)

PRE-CHORUS

CHORUS

CHORUS VARIATION

INTRO
Suggest correction
What's this?
You can suggest a correction to this tab. Community and Mods will review your correction and vote to approve or reject it.
comments
We did not receive enough feedback on this tab! Please rate:
print report bad tab
1 2 3 4 5
guest
You may want to rate the tab now too:
select rating
Please do not post tabs as comments. Select "correction" instead!