Oops, an error
Loading. Please wait.

End In Tragedy Tab

321 views 3 this week
no commentswrite comment
1 2 3 4 5
please rate
add to favorites
launch autoscroll
font size
0
reset
how to read this tab
guitar tuner
Autoscroll
slow
fast
+/-
esc
set tempo
stop
Help us to improve Ultimate-Guitar.com Take our survey!
×
Author
Difficulty
Tuning
intermediate
D A D G B E
INTRO

Violin

E|----------------------|
B|-14h15h17r15r14h15----|
G|-------------------16-|
D|----------------------|
A|----------------------|
D|----------------------|

Electric 2
(palm mute)
E|---------|
B|---------|
G|---------|
D|-9-5-0-4-|
A|-9-5-0-4-|
D|-9-5-0-4-|

VERSE (part 1)

Violin
(repeatedly)
E|--------|
B|-12--11-|
G|-16--15-|
D|--------|
A|--------|
D|--------|

Electric 2
(palm mute)
E|---------|
B|---------|
G|---------|
D|-9-5-0-4-|
A|-9-5-0-4-|
D|-9-5-0-4-|

VERSE (part 2)

Violin
(repeatedly)
E|--------|
B|-12--11-|
G|-16--15-|
D|--------|
A|--------|
D|--------|

Electric 1

E|------------|
B|------------|
G|-11-12-11-6-|
D|-x--x--x--x-|
A|-9--10-9--4-|
D|------------|

Electric 2
(palm mute)
E|---------|
B|---------|
G|---------|
D|-9-5-0-4-|
A|-9-5-0-4-|
D|-9-5-0-4-|


VERSE (part 3)

Electric 1

E|-----------------------------------------------------------|
B|-------------------------------------10--------------------|
G|---11-9-11-9-11-9-7---11-9-11-9-11-9------11-9-11-9-11-9-7-|
D|-9------------------9-------------------9------------------|
A|-----------------------------------------------------------|
D|-----------------------------------------------------------|

------------------------------|
------------------------------|
----11-9-11-9-11-9-11-9-------|
--9---------------------12-11-|
------------------------------|
------------------------------|

PRE-CHORUS

Electric 1

E|----------|
B|----------|
G|---9-7----|
D|-9-----11-|
A|----------|
D|----------|

Electric 2

E|-----|
B|-----|
G|-----|
D|-2-4-|
A|-2-4-|
D|-2-4-|

CHORUS (part 1)

Electric 1

E|---------------------|
B|---------------------|
G|-4-6-7----7-\6/7\6-7-|
D|-x-x-x-x2-x--x-x-x-x-|
A|-2-4-5----5-\4/5\4-5-|
D|---------------------|

Electric 2

E|-----------|
B|-----------|
G|-----------|
D|-9-5-0-7-8-|
A|-9-5-0-7-8-|
D|-9-5-0-7-8-|

CHORUS (part 2)

Electric 1+2

E|-----------|
B|-----------|
G|-----------|
D|-9-5-0-7-8-|
A|-9-5-0-7-8-|
D|-9-5-0-7-8-|

Violin

Violin
(repeatedly)
E|--------|
B|-12--11-|
G|-16--15-|
D|--------|
A|--------|
D|--------|

VERSE (part 1)

VERSE (part 3)

CHORUS

BRIDGE (part 1

Electric 2

E|---------|
B|---------|
G|---------|
D|-9-4-5-2-|
A|-9-4-5-2-|
D|-9-4-5-2-|

BRIDGE (part 2)

Violin

E|----------------|
B|-12-14-15-16-x2-|
G|----------------|
D|----------------|
A|----------------|
D|----------------|

Electric 2

E|---------|
B|---------|
G|---------|
D|-9-4-5-2-|
A|-9-4-5-2-|
D|-9-4-5-2-|

CHORUS

OUTRO (basically the chorus with a few differences, shouldnt be too hard to figure out.)
Suggest correction
Give kudos to tab author, rate the tab!
1 2 3 4 5
comments
print report bad tab
guest
You may want to rate the tab now too:
select rating
Wanna post a correction for this tab? Suggest correction