Oops, an error
Loading. Please wait.

Grand Finale Tab

549 views 6 this week
no commentswrite comment
1 2 3 4 5
please rate
add to favorites
launch autoscroll
font size
0
reset
how to read this tab
guitar tuner
Autoscroll
slow
fast
+/-
esc
set tempo
stop
Help us to improve Ultimate-Guitar.com Take our survey!
×
Author
Difficulty
Tuning
intermediate
D A D G B E
INTRO/VERSE 
Violin
                                                      (end of 3rd time)
E|----------------------------------------------------  --------------|
B|----------------------------------------------------  --------------|
G|-13-------x2--13-------x2--14-------x2--13-------x2-  --16-------x2-|
D|----11-14--------10-13--------11-14--------10-13----  -----13-14----|
A|----------------------------------------------------  --------------|
D|----------------------------------------------------  --------------|

PRE-CHORUS (part 1)

Electric 1+2

E|------------|
B|------------|
G|------------|
D|-7-11-6-7-9-| x2
A|-7-11-6-7-9-|
D|-7-11-6-7-9-|

PRE-CHORUS

Electric 1

E|-------------------|
B|-------------------|
G|----13----16-13----|
D|-14----14-------14-|
A|-------------------|
D|-------------------|

CHORUS

Electric 1

E|-----------------------|
B|-----------------------|
G|-16-9-11-12-13-11-9-11-|
D|-x--x-x--x--x--x--x-x--|
A|-14-7-9--10-11-9--7-9--|
D|-----------------------|

Electric 2

E|-----------------|
B|-----------------|
G|-----------------|
D|-2-9-10-11-9-7-9-|
A|-2-9-10-11-9-7-9-|
D|-2-9-10-11-9-7-9-|

VERSE

Violin
                                                      (end of 3rd time)
E|----------------------------------------------------  --------------|
B|----------------------------------------------------  --------------|
G|-13-------x2--13-------x2--14-------x2--13-------x2-  --16-------x2-|
D|----11-14--------10-13--------11-14--------10-13----  -----13-14----|
A|----------------------------------------------------  --------------|
D|----------------------------------------------------  --------------|

Electric 1

E|---------------------------|
B|-14------------------------|
G|----13bb----14-11----------|
D|---------11-------14-13-11-|
A|---------------------------|
D|---------------------------|

PRE-CHORUS

Electric 1+2

E|-----------------|
B|-----------------|
G|-----------------|
D|-6-7-10-11-6-7-9-|
A|-6-7-10-11-6-7-9-|
D|-6-7-10-11-6-7-9-|

CHORUS

BRIDGE

Electric 1+2

E|-----------------|
B|-----------------|
G|-----------------|
D|-4-7-10-11-6-7-9-|
A|-4-7-10-11-6-7-9-|
D|-4-7-10-11-6-7-9-|

BREAKDOWN

Electric 1+2
(play this 
for a while) (this part im a little iffy :P)
E|-----------------------------------------|
B|-----------------------------------------|
G|-----------------------------------------|
D|-11--------------------------------------|
A|-11--------9-11-6-7-9-6-9-11-6-7-9-7-6-4-|
D|-11--------------------------------------|

PRE-CHORUS

Electric 2
(fast pm)
E|----|
B|----|
G|----|
D|-11-|
A|-11-|
D|-11-|

CHORUS

OUTRO

Electric 1+2 

E|----|
B|----|
G|----|
D|-11-|
A|-11-|
D|-11-|
Suggest correction
What's this?
You can suggest a correction to this tab. Community and Mods will review your correction and vote to approve or reject it.
comments
We did not receive enough feedback on this tab! Please rate:
print report bad tab
1 2 3 4 5
guest
You may want to rate the tab now too:
select rating
Please do not post tabs as comments. Select "correction" instead!