Oops, an error
Loading. Please wait.

Ill Sleep When Im Dead Tab

2,899 views 15 this week
no commentswrite comment
1 2 3 4 5
please rate
add to favorites
launch autoscroll
font size
0
reset
how to read this tab
guitar tuner
Tab Pro tools
  • play this tab
  • loop segment
  • change instrument
  • show fretboard
  • metronome
×
Best way to learn
"Ill Sleep When Im Dead"
Autoscroll
slow
fast
+/-
esc
set tempo
stop
Contributor
Difficulty
Tuning
intermediate
D A D G B E
INTRO

Bell

E|----------------------------------------------------------------------------|
B|------------------------14-13-11-11-9-------------------------13-11-9-13/14-|
G|-10-10-13-10-10-13-10-13--------------8-10-11-8-8-10-11-8-8-11--------------|
D|----------------------------------------------------------------------------|
A|----------------------------------------------------------------------------|
D|----------------------------------------------------------------------------|

VERSE 

Electric 2
(palm mute)
E|------------|
B|------------|
G|------------|
D|------------|
A|------------|
D|-11-6-7-4-6-|

PRE-CHORUS

Electric 1

E|-------------------------------------------|
B|-------------------------------------------|
G|----17----16----13----16-13----13----16-13-|
D|-14----14----14----14-------14----14----x--|
A|----------------------------------------11-|
D|-------------------------------------------|

Electric 2
(palm mute)
E|------------|
B|------------|
G|------------|
D|------------|
A|------------|
D|-11-6-7-4-6-|

CLEAN CHORUS

Synth

E|-----------------------------|
B|-----------------------------|
G|----------11-13-11-------13b-|
D|-11-13-14----------14-13-----|
A|-----------------------------|
D|-----------------------------|

Electric 2

E|----------|
B|----------|
G|-6-9-13-8-|
D|-6-9-13-8-|
A|-4-7-11-6-|
D|----------|

POST

Electric 1

E|----------------------------------------------------------|
B|----------------------------------------------------------|
G|-9\8\6----9-8-9-11-9-8-9--13\11\9----13-11-13-14-13-11-13-|
D|-x-x-x-x2-x-x-x-x--x-x-x--x--x--x-x2-x--x--x--x--x--x--x--|
A|-7\6\4----7-6-7-9--7-6-7--11\9-\7----11-9--11-12-11-9--11-|
D|----------------------------------------------------------|

Electric 2

E|-----------------------|
B|-----------------------|
G|-----------------------|
D|-11-6-7-4-6--11-6-7-10-|
A|-11-6-7-4-6--11-6-7-10-|
D|-11-6-7-4-6--11-6-7-10-|

VERSE (part 1)

Electric 1+2

E|------------|
B|------------|
G|------------|
D|-11-6-7-4-6-|
A|-11-6-7-4-6-|
D|-11-6-7-4-6-|

VERSE (part 2)

Electric 1

E|-------|
B|-------|
G|-13-14-|
D|-x--x--|
A|-11-12-|
D|-------|

Electric 2

E|------------|
B|------------|
G|------------|
D|-11-6-7-4-6-|
A|-11-6-7-4-6-|
D|-11-6-7-4-6-|

PRE-CHORUS

CHORUS

Electric 1

E|--------------------|
B|--------------------|
G|-6-8-9-11-13-11-9-8-|
D|-x-x-x-x--x--x--x-x-|
A|-4-6-7-9--11-9--7-6-|
D|--------------------|

Electric 2

E|----------|
B|----------|
G|----------|
D|-11-7-2-6-|
A|-11-7-2-6-|
D|-11-7-2-6-|

BRIDGE (part 1)

Electric 1

E|------------|
B|------------|
G|-13-11-9-11-|
D|-x--x--x-x--|
A|-11-9--7-9--|
D|------------|

Electric 2

E|-----------------|
B|-----------------|
G|-----------------|
D|-11-6-9-4-7-9-10-|
A|-11-6-9-4-7-9-10-|
D|-11-6-9-4-7-9-10-|

BRIDGE (part 2)

Electric 1

E|---------------------------------------|
B|---------------------------------------|
G|-13-11-9-11--9-11-13-14-11-13-14-16-18-|
D|-x--x--x-x---x-x--x--x--x--x--x--x--x--|
A|-11-9--7-9---7-9--11-12-9--11-12-14-16-|
D|---------------------------------------|

Electric 2

E|-----------------|
B|-----------------|
G|-----------------|
D|-11-6-9-4-7-9-10-|
A|-11-6-9-4-7-9-10-|
D|-11-6-9-4-7-9-10-|

BREAKDOWN
(prob be easier in Drop C :P)

Electric 1+2

E|-----------------------------------|
B|-----------------------------------|
G|---------------------------9-------|
D|-11----11-6-7-4-6-11-6-4-2-9-2-4-6-|
A|-11-x3-11-6-7-4-6-11-6-4-2-7-2-4-6-|
D|-11----11-6-7-4-6-11-6-4-2---2-4-6-|


PRE-CHORUS

CHORUS

OUTRO

Electric 1+2

E|-----------------------------------|
B|-----------------------------------|
G|---------------------------9-------|
D|-11----11-6-7-4-6-11-6-4-2-9-2-4-6-|
A|-11-x3-11-6-7-4-6-11-6-4-2-7-2-4-6-|
D|-11----11-6-7-4-6-11-6-4-2---2-4-6-|
comments
We did not receive enough feedback on this tab! Please rate:
print report bad tab
1 2 3 4 5
I want to post or [tab]
guest
You may want to rate the tab now too:
select rating
Please do not post tabs as comments. Select "correction" instead!