Oops, an error
Loading. Please wait.

Nightmare Tab

version 2
version 2

Whole song

  • The whole song tabbed for single electric guitar.
115 views 6 this week
no commentswrite comment
1 2 3 4 5
2 more votes to show rating
add to favorites
launch autoscroll
font size
0
reset
how to read this tab
guitar tuner
Autoscroll
slow
fast
+/-
esc
set tempo
stop
Help us to improve Ultimate-Guitar.com Take our survey!
×
Author
Difficulty
Tuning
intermediate
D A D G B E
About this tab version
The whole song tabbed for single electric guitar. Was this info helpful? Yes No
Nightmare by Set It Off tabbed for a single electric guitar. Should be correct.
I also did a cover video using my tabs so you can check out if it sounds right to you:
https://youtu.be/g5oV2CC1BRg

Tuning: Drop D
 
[Intro]

e|-------------------------|-------------------------|
B|-------------------------|-------------------------|
G|-13-13-13-13-13-13-13-13-|-13-13-13-13-13-13-16-16-|
D|-------------------------|-------------------------| x2
A|-11-11-11-11-11-11-11-11-|-11-11-11-11-11-11-14-14-|
D|-------------------------|-------------------------|


[Verse]

(pause 4 bars)

e|---------------|---------------|---------------|---------------|
B|---------------|---------------|---------------|---------------|
G|---------------|---------------|---------------|---------------|
D|-6----6-6----6-|-6----6-6----4-|-2----2-2----2-|-2----2-2----4-| x3
A|-6----6-6----6-|-6----6-6----4-|-2----2-2----2-|-2----2-2----4-|
D|-6----6-6----6-|-6----6-6----4-|-2----2-2----2-|-2----2-2----4-|

PM .    . .    .   .    . .    .   .    . .    .   .    . .    .

e|---------------|---------------|---------------|---------------|
B|---------------|---------------|---------------|---------------|
G|---------------|---------------|---------------|---------------|
D|-6----6-6----6-|-6----6-6----4-|-2----2-2----2-|-2----2--4--6--|
A|-6----6-6----6-|-6----6-6----4-|-2----2-2----2-|-2----2--4--6--|
D|-6----6-6----6-|-6----6-6----4-|-2----2-2----2-|-2----2--4--6--|

PM .    . .    .   .    . .    .   .    . .    .   .    .


[Pre-Chorus]

e|-----------------|-----------------|-----------------|-----------------|
B|-----------------|-----------------|-----------------|-----------------|
G|-----------------|-----------------|-----------------|-----------------|
D|-2---2-2---------|---------4-4-4-4-|-1---1-1---------|---------6-6-4-4-|
A|-2---2-2---------|---------4-4-4-4-|-1---1-1---------|---------6-6-4-4-|
D|-2---2-2---------|---------4-4-4-4-|-1---1-1---------|---------6-6-4-4-|

e|-----------------|-----------------|-----------------|-----------------|
B|-----------------|-----------------|-----------------|-----------------|
G|-----------------|-----------------|-----------------|-----------------|
D|-2---2-2---------|---4-----4-4-2-2-|-1-1-1-1-1-1-1-1-|-1-------6-6-6-6-|
A|-2---2-2---------|---4-----4-4-2-2-|-1-1-1-1-1-1-1-1-|-1-------6-6-6-6-|
D|-2---2-2---------|---4-----4-4-2-2-|-1-1-1-1-1-1-1-1-|-1-------6-6-6-6-|


[Chorus]

e|-----------------|-----------------|-----------------|-----------------|
B|-----------------|-----------------|-----------------|-----------------|
G|-----------------|-----------------|-----------------|-----------------|
D|-6-6-6-6-6-6-6-6-|-6-6-6-6-6-6-6-6-|-9-9-9-9-9-9-9-9-|-9-9-9-9-9-9-9-9-|
A|-6-6-6-6-6-6-6-6-|-6-6-6-6-6-6-6-6-|-9-9-9-9-9-9-9-9-|-9-9-9-9-9-9-9-9-|
D|-6-6-6-6-6-6-6-6-|-6-6-6-6-6-6-6-6-|-9-9-9-9-9-9-9-9-|-9-9-9-9-9-9-9-9-|

e|-----------------|-----------------|-----------------|-----------------|
B|-----------------|-----------------|-----------------|-----------------|
G|-----------------|-----------------|-----------------|-----------------|
D|-2-2-2-2-2-2-2-2-|-2-2-2-2-2-2-2-2-|-1-1-1-1-1-1-1-1-|-1-1-1-1-1-1-1-1-|
A|-2-2-2-2-2-2-2-2-|-2-2-2-2-2-2-2-2-|-1-1-1-1-1-1-1-1-|-1-1-1-1-1-1-1-1-|
D|-2-2-2-2-2-2-2-2-|-2-2-2-2-2-2-2-2-|-1-1-1-1-1-1-1-1-|-1-1-1-1-1-1-1-1-|

e|-----------------|-----------------|-----------------|-----------------|
B|-----------------|-----------------|-----------------|-----------------|
G|-----------------|-----------------|-----------------|-----------------|
D|-6-6-6-6-6-6-6-6-|-6-6-6-6-6-6-6-6-|-9-9-9-9-9-9-9-9-|-9-9-9-9-9-9-9-9-|
A|-6-6-6-6-6-6-6-6-|-6-6-6-6-6-6-6-6-|-9-9-9-9-9-9-9-9-|-9-9-9-9-9-9-9-9-|
D|-6-6-6-6-6-6-6-6-|-6-6-6-6-6-6-6-6-|-9-9-9-9-9-9-9-9-|-9-9-9-9-9-9-9-9-|

e|-----------------|-----------------|-----------------|-----------------|
B|-----------------|-----------------|-----------------|-----------------|
G|-----------------|-----------------|-----------------|-----------------|
D|-2-2-2-2-2-2-2-2-|-2-2-2-2-2-2-2-2-|-1---1---1---1---|-6-6-6-6-6-6-6-6-|
A|-2-2-2-2-2-2-2-2-|-2-2-2-2-2-2-2-2-|-1---1---1---1---|-6-6-6-6-6-6-6-6-|
D|-2-2-2-2-2-2-2-2-|-2-2-2-2-2-2-2-2-|-1---1---1---1---|-6-6-6-6-6-6-6-6-|


[Post-Chorus]

e|-----------------|-----------------|-----------------|-----------------|
B|-----------------|-----------------|-----------------|-----------------|
G|-------------6---|---6-8-9br-6-----|-------------6---|-----9---8---6---|
D|-6-8-9-6-8-9---8-|-9-----------9-8-|-6-8-9-6-8-9---8-|-6---------------|
A|-----------------|-----------------|-----------------|-----------------|
D|-----------------|-----------------|-----------------|-----------------|


[Verse]

(pause 8 bars)

e|---------------|---------------|---------------|-----------------|
B|---------------|---------------|---------------|-----------------|
G|---------------|---------------|---------------|-----------------|
D|---------------|---------------|---------------|-----------------|
A|---------------|---------------|---------------|-----------------|
D|-6----8-9----6-|-4----8-6----8-|-6----8-9----6-|-4---8---6---4---|

PM .    . .    .   .    . .    .   .    . .    .   .   .   .   .

e|---------------|----------------|-----------------|-----------------|
B|---------------|----------------|-----------------|-----------------|
G|---------------|----------------|-----------------|-----------------|
D|---------------|--------6---4---|-2-2-2-2-2-2-2-2-|-1-1-1-1-1-1-1-1-|
A|---------------|--------6---4---|-2-2-2-2-2-2-2-2-|-1-1-1-1-1-1-1-1-|
D|-6----8-9----6-|-4----8-6---4---|-2-2-2-2-2-2-2-2-|-1-1-1-1-1-1-1-1-|

PM .    . .    .   .    .


[Chorus]

e|-----------------|-----------------|-----------------|-----------------|
B|-----------------|-----------------|-----------------|-----------------|
G|-----------------|-----------------|-----------------|-----------------|
D|-6-6-6-6-6-6-6-6-|-6-6-6-6-6-6-6-6-|-9-9-9-9-9-9-9-9-|-9-9-9-9-9-9-9-9-|
A|-6-6-6-6-6-6-6-6-|-6-6-6-6-6-6-6-6-|-9-9-9-9-9-9-9-9-|-9-9-9-9-9-9-9-9-|
D|-6-6-6-6-6-6-6-6-|-6-6-6-6-6-6-6-6-|-9-9-9-9-9-9-9-9-|-9-9-9-9-9-9-9-9-|

e|-----------------|-----------------|-----------------|-----------------|
B|-----------------|-----------------|-----------------|-----------------|
G|-----------------|-----------------|-----------------|-----------------|
D|-2-2-2-2-2-2-2-2-|-2-2-2-2-2-2-2-2-|-1-1-1-1-1-1-1-1-|-1-1-1-1-1-1-1-1-|
A|-2-2-2-2-2-2-2-2-|-2-2-2-2-2-2-2-2-|-1-1-1-1-1-1-1-1-|-1-1-1-1-1-1-1-1-|
D|-2-2-2-2-2-2-2-2-|-2-2-2-2-2-2-2-2-|-1-1-1-1-1-1-1-1-|-1-1-1-1-1-1-1-1-|

e|-----------------|-----------------|-----------------|-----------------|
B|-----------------|-----------------|-----------------|-----------------|
G|-----------------|-----------------|-----------------|-----------------|
D|-6-6-6-6-6-6-6-6-|-6-6-6-6-6-6-6-6-|-9-9-9-9-9-9-9-9-|-9-9-9-9-9-9-9-9-|
A|-6-6-6-6-6-6-6-6-|-6-6-6-6-6-6-6-6-|-9-9-9-9-9-9-9-9-|-9-9-9-9-9-9-9-9-|
D|-6-6-6-6-6-6-6-6-|-6-6-6-6-6-6-6-6-|-9-9-9-9-9-9-9-9-|-9-9-9-9-9-9-9-9-|

e|-----------------|-----------------|-----------------|-----------------|
B|-----------------|-----------------|-----------------|-----------------|
G|-----------------|-----------------|-----------------|-----------------|
D|-2-2-2-2-2-2-2-2-|-2-2-2-2-2-2-2-2-|-1---1---1---1---|-6-6-6-6-6-6-6-6-|
A|-2-2-2-2-2-2-2-2-|-2-2-2-2-2-2-2-2-|-1---1---1---1---|-6-6-6-6-6-6-6-6-|
D|-2-2-2-2-2-2-2-2-|-2-2-2-2-2-2-2-2-|-1---1---1---1---|-6-6-6-6-6-6-6-6-|

[Bridge]

(pause 7 bars)

e|---------x-x-x-x-|
B|---------x-x-x-x-|
G|---------x-x-x-x-|
D|---------x-x-x-x-|
A|---------x-x-x-x-|
D|---------x-x-x-x-|

e|-----------------|-----------------|-----------------|-----------------|
B|-----------------|-----------------|-----------------|-----------------|
G|-----------------|-----------------|-----------------|-----------------|
D|-6-6---6-6-6---6-|-6-6---6-6-6---6-|-5-5---5-5-5---5-|-1-1---1-1-1---1-|
A|-6-6---6-6-6---6-|-6-6---6-6-6---6-|-5-5---5-5-5---5-|-1-1---1-1-1---1-|
D|-6-6---6-6-6---6-|-6-6---6-6-6---6-|-5-5---5-5-5---5-|-1-1---1-1-1---1-|

e|-----------------|-----------------|-----------------|-----------------|
B|-----------------|-----------------|-----------------|-----------------|
G|-----------------|-----------------|-----------------|-----------------|
D|-2-2---2-2-2---2-|-2-2---2-2-2---2-|-1-1---1-1-1---1-|-1-1---1-1-1---1-|
A|-2-2---2-2-2---2-|-2-2---2-2-2---2-|-1-1---1-1-1---1-|-1-1---1-1-1---1-|
D|-2-2---2-2-2---2-|-2-2---2-2-2---2-|-1-1---1-1-1---1-|-1-1---1-1-1---1-|

e|-----------------|-----------------|-----------------|-----------------|
B|-----------------|-----------------|-----------------|-----------------|
G|-----------------|-----------------|-----------------|-----------------|
D|-6-6-6-6-6-6-6-6-|-6-6-6-6-6-6-6-6-|-5-5-5-5-5-5-5-5-|-1-1-1-1-1-1-1-1-|
A|-6-6-6-6-6-6-6-6-|-6-6-6-6-6-6-6-6-|-5-5-5-5-5-5-5-5-|-1-1-1-1-1-1-1-1-|
D|-6-6-6-6-6-6-6-6-|-6-6-6-6-6-6-6-6-|-5-5-5-5-5-5-5-5-|-1-1-1-1-1-1-1-1-|

e|-----------------|-----------------|-----------------|-----------------|
B|-----------------|-----------------|-----------------|-----------------|
G|-----------------|-----------------|-----------------|-----------------|
D|-2-2-2-2-2-2-2-2-|-2-2-2-2-2-2-2-2-|-1-1-1-1-1-1-1-1-|-1-1-1-1-1-1-1-1-|
A|-2-2-2-2-2-2-2-2-|-2-2-2-2-2-2-2-2-|-1-1-1-1-1-1-1-1-|-1-1-1-1-1-1-1-1-|
D|-2-2-2-2-2-2-2-2-|-2-2-2-2-2-2-2-2-|-1-1-1-1-1-1-1-1-|-1-1-1-1-1-1-1-1-|


[Chorus]

e|-----------------|-----------------|-----------------|-----------------|
B|-----------------|-----------------|-----------------|-----------------|
G|-----------------|-----------------|-----------------|-----------------|
D|-6---------------|-----------------|-9---------------|-----------------|
A|-6---------------|-----------------|-9---------------|-----------------|
D|-6---------------|-----------------|-9---------------|-----------------|

e|-----------------|-----------------|-----------------|-----------------|
B|-----------------|-----------------|-----------------|-----------------|
G|-----------------|-----------------|-----------------|-----------------|
D|-2---------------|-----------------|-1-1-1-1-1-1-1-1-|-6---------------|
A|-2---------------|-----------------|-1-1-1-1-1-1-1-1-|-6---------------|
D|-2---------------|-----------------|-1-1-1-1-1-1-1-1-|-6---------------|

                                   PM  . . . . . . . .

e|-----------------|-----------------|-----------------|-----------------|
B|-----------------|-----------------|-----------------|-----------------|
G|-----------------|-----------------|-----------------|-----------------|
D|-6-6-6-6-6-6-6-6-|-6-6-6-6-6-6-6-6-|-9-9-9-9-9-9-9-9-|-9-9-9-9-9-9-9-9-|
A|-6-6-6-6-6-6-6-6-|-6-6-6-6-6-6-6-6-|-9-9-9-9-9-9-9-9-|-9-9-9-9-9-9-9-9-|
D|-6-6-6-6-6-6-6-6-|-6-6-6-6-6-6-6-6-|-9-9-9-9-9-9-9-9-|-9-9-9-9-9-9-9-9-|

e|-----------------|-----------------|-----------------|-----------------|
B|-----------------|-----------------|-----------------|-----------------|
G|-----------------|-----------------|-----------------|-----------------|
D|-2-2-2-2-2-2-2-2-|-2-2-2-2-2-2-2-2-|-1-1-1-1-1-1-1-1-|-1-1-1-1-1-1-1-1-|
A|-2-2-2-2-2-2-2-2-|-2-2-2-2-2-2-2-2-|-1-1-1-1-1-1-1-1-|-1-1-1-1-1-1-1-1-|
D|-2-2-2-2-2-2-2-2-|-2-2-2-2-2-2-2-2-|-1-1-1-1-1-1-1-1-|-1-1-1-1-1-1-1-1-|

e|-----------------|-----------------|-----------------|-----------------|
B|-----------------|-----------------|-----------------|-----------------|
G|-----------------|-----------------|-----------------|-----------------|
D|-6-6-6-6-6-6-6-6-|-6-6-6-6-6-6-6-6-|-9-9-9-9-9-9-9-9-|-9-9-9-9-9-9-9-9-|
A|-6-6-6-6-6-6-6-6-|-6-6-6-6-6-6-6-6-|-9-9-9-9-9-9-9-9-|-9-9-9-9-9-9-9-9-|
D|-6-6-6-6-6-6-6-6-|-6-6-6-6-6-6-6-6-|-9-9-9-9-9-9-9-9-|-9-9-9-9-9-9-9-9-|

e|-----------------|-----------------|-----------------|-----------------|
B|-----------------|-----------------|-----------------|-----------------|
G|-----------------|-----------------|-----------------|-----------------|
D|-2-2-2-2-2-2-2-2-|-2-2-2-2-2-2-2-2-|-1---1---1---1---|-6-6-6-6-6-6-6-6-|
A|-2-2-2-2-2-2-2-2-|-2-2-2-2-2-2-2-2-|-1---1---1---1---|-6-6-6-6-6-6-6-6-|
D|-2-2-2-2-2-2-2-2-|-2-2-2-2-2-2-2-2-|-1---1---1---1---|-6-6-6-6-6-6-6-6-|


[Outro]

e|---------------------|---------------------|
B|---------------------|---------------------|
G|---------------------|---------------------|
D|-6-6-6-6-13-13-13-13-|-11-11-11-11-9-9-9-9-| x3
A|-6-6-6-6-13-13-13-13-|-11-11-11-11-9-9-9-9-|
D|-6-6-6-6-13-13-13-13-|-11-11-11-11-9-9-9-9-|

e|---------------------|---------------------|---------------------|
B|---------------------|---------------------|---------------------|
G|---------------------|---------------------|---------------------|
D|-6-6-6-6-13-13-13-13-|-11------------------|-6-------------------|
A|-6-6-6-6-13-13-13-13-|-11------------------|-6-------------------|
D|-6-6-6-6-13-13-13-13-|-11------------------|-6-------------------|

The end :)

************************************

| x   Dead note
| br  Bend release
| PM  Palm mute

************************************
Suggest correction
Give kudos to tab author, rate the tab!
1 2 3 4 5
comments
print report bad tab
guest
You may want to rate the tab now too:
select rating
Wanna post a correction for this tab? Suggest correction