Oops, an error
Loading. Please wait.

Nme tab

3,041 views 33 this week
1 commentread comment
1 2 3 4 5
x 3
add to favorites
×
Save as Personal and add changes to this tab that will be seen only by you. Learn more ›
×
You can save this tab as Personal to edit and correct it or add notes. All changes will be seen only by you. Learn more »
launch autoscroll
font size
0
reset
how to read this tab
guitar tuner
edit
Autoscroll
slow
fast
+/-
esc
set tempo
stop
-------------------------------------------------------------------------------
                             N.M.E - Set It Off
-------------------------------------------------------------------------------

Band: Set It Off
Song: N.M.E
Album: Duality (2014)
Tuning: Drop C#


INTRO 0:08
Guitar 1 x1
e|---------------------------------------------------------------------------|
B|---------------------------------------------------------------------------|
G|-3~33~~3-4323~-33~33~~3-4323~-3--------------------------------------------|
D|---------------------------------------------------------------------------|
A|---------------------------------------------------------------------------|
E|---------------------------------------------------------------------------|

Guitar 2 x4
e|---------------------------------------------------------------------------|
B|---------------------------------------------------------------------------|
G|---------------------------------------------------------------------------|
D|---------------------------------------------------------------------------|
A|---------------------------------------------------------------------------|
E|-1-1-1-1-1-1-1-1-0-0-0-0-0-0-0-0-------------------------------------------|


VERSE/PRE-CHORUS 0:24
Guitar 1&2
e|---------------------------------------------------------------------------|
B|---------------------------------------------------------------------------|
G|---------------------------------------------------------------------------|
D|-1-1-----------------------------1-1---------------------------------------|
A|-1-1-----------------------------1-1---------------------------------------|
E|-1-1-----------------------------1-1---------------------------------------|


CHORUS 0:41
Guitar 1+2 x2
e|---------------------------------------------------------------------------|
B|---------------------------------------------------------------------------|
G|---------------------------------------------------------------------------|
D|---------------------------------------------------------------------------|
A|---------------------------------------------------------------------------|
E|-1-1-1-1-1-1-1-1-1-1-1-1-0-0-0-0-1-1-1-1-1-1-1-1-1-1-1-1-0-0-0-0-----------|

e|---------------------------------------------------------------------------|
B|---------------------------------------------------------------------------|
G|---------------------------------------------------------------------------|
D|---------------------------------------------------------------------------|
A|-2-2-2-2-2-2-2-2-2-2-2-2-----------------1-1-1-1-1-1-1-1-------------------|
E|-------------------------4-4-4-4-4-4-4-4-----------------------------------|

Guitar 1&2 x 1
e|---------------------------------------------------------------------------|
B|---------------------------------------------------------------------------|
G|---------------------------------------------------------------------------|
D|---------------------------------------------------------------------------|
A|-2-2-2-2-2-2-2-2-2-2-2-2-2-2-2-2-4-4-4-4-4-4-4-4-4-4-4-4-4-4-4-4-----------|
E|---------------------------------------------------------------------------|

e|---------------------------------------------------------------------------|
B|---------------------------------------------------------------------------|
G|---------------------------------------------------------------------------|
D|---------------------------------------------------------------------------|
A|---------------------------------------------------------------------------|
E|-1-1-1-1-1-1-1-1-1-1-1-1-3-3-3-3-4-4-4-4-4-4-4-4-4-4-4-4-4-4-4-4-----------|

e|---------------------------------------------------------------------------|
B|---------------------------------------------------------------------------|
G|---------------------------------3-4-3-------------------------------------|
D|---------------------------------3-4-3-------------------------------------|
A|-2-2-2-2-2-2-2-2-2-2-2-2-2-2-2-2-1-2-1-------------------------------------|
E|---------------------------------------------------------------------------|


PRE-VERSE 1:08
Guitar 1 x1
e|---------------------------------------------------------------------------|
B|---------------------------------------------------------------------------|
G|-3~33~~3-4323~-33~33~~3-4323~-3--------------------------------------------|
D|---------------------------------------------------------------------------|
A|---------------------------------------------------------------------------|
E|---------------------------------------------------------------------------|

Guitar 2 x4
e|---------------------------------------------------------------------------|
B|---------------------------------------------------------------------------|
G|---------------------------------------------------------------------------|
D|---------------------------------------------------------------------------|
A|---------------------------------------------------------------------------|
E|-1-1-1-1-1-1-1-1-0-0-0-0-0-0-0-0-------------------------------------------|


VERSE/PRE-CHORUS 1:24
Guitar 1&2
e|---------------------------------------------------------------------------|
B|---------------------------------------------------------------------------|
G|---------------------------------------------------------------------------|
D|-1-1-----------------------------1-1---------------------------------------|
A|-1-1-----------------------------1-1---------------------------------------|
E|-1-1-----------------------------1-1---------------------------------------|


CHORUS 1:41
Guitar 1+2 x2
e|---------------------------------------------------------------------------|
B|---------------------------------------------------------------------------|
G|---------------------------------------------------------------------------|
D|---------------------------------------------------------------------------|
A|---------------------------------------------------------------------------|
E|-1-1-1-1-1-1-1-1-1-1-1-1-0-0-0-0-1-1-1-1-1-1-1-1-1-1-1-1-0-0-0-0-----------|

e|---------------------------------------------------------------------------|
B|---------------------------------------------------------------------------|
G|---------------------------------------------------------------------------|
D|---------------------------------------------------------------------------|
A|-2-2-2-2-2-2-2-2-2-2-2-2-----------------1-1-1-1-1-1-1-1-------------------|
E|-------------------------4-4-4-4-4-4-4-4-----------------------------------|

Guitar 1&2 x 1
e|---------------------------------------------------------------------------|
B|---------------------------------------------------------------------------|
G|---------------------------------------------------------------------------|
D|---------------------------------------------------------------------------|
A|-2-2-2-2-2-2-2-2-2-2-2-2-2-2-2-2-4-4-4-4-4-4-4-4-4-4-4-4-4-4-4-4-----------|
E|---------------------------------------------------------------------------|

e|---------------------------------------------------------------------------|
B|---------------------------------------------------------------------------|
G|---------------------------------------------------------------------------|
D|---------------------------------------------------------------------------|
A|---------------------------------------------------------------------------|
E|-1-1-1-1-1-1-1-1-1-1-1-1-3-3-3-3-4-4-4-4-4-4-4-4-4-4-4-4-4-4-4-4-----------|

e|---------------------------------------------------------------------------|
B|---------------------------------------------------------------------------|
G|---------------------------------3-4-3-4-3-4-3-4-3-------------------------|
D|---------------------------------3-4-3-4-3-4-3-4-3-------------------------|
A|-2-2-2-2-2-2-2-2-2-2-2-2-2-2-2-2-1-2-1-2-1-2-1-2-1-------------------------|
E|---------------------------------------------------------------------------|


PRE-VERSE 2:08
Guitar 1 x1
e|---------------------------------------------------------------------------|
B|---------------------------------------------------------------------------|
G|-3~33~~3-4323~-33~33~~3-4323~-3--------------------------------------------|
D|---------------------------------------------------------------------------|
A|---------------------------------------------------------------------------|
E|---------------------------------------------------------------------------|

Guitar 2 x4
e|---------------------------------------------------------------------------|
B|---------------------------------------------------------------------------|
G|---------------------------------------------------------------------------|
D|---------------------------------------------------------------------------|
A|---------------------------------------------------------------------------|
E|-1-1-1-1-1-1-1-1-0-0-0-0-0-0-0-0-------------------------------------------|


INTERLUDE 2:28
Guitar 1&2
e|---------------------------------------------------------------------------|
B|---------------------------------------------------------------------------|
G|----------------------4--3-------------------------------------------------|
D|----6-----4-----2-----4--3-------------------------------------------------|
A|----6-----4-----2-----2--1-------------------------------------------------|
E|----6-----4-----2----------------------------------------------------------|


PRECHORUS 2:32
Guitar 1 x1 
e|---------------------------------------------------------------------------|
B|---------------------------------------------------------------------------|
G|-3~33~~3-4323~-33~33~~3-432------------------------------------------------|
D|---------------------------------------------------------------------------|
A|---------------------------------------------------------------------------|
E|---------------------------------------------------------------------------|


CHORUS 2:40
Guitar 1+2 x2
e|---------------------------------------------------------------------------|
B|---------------------------------------------------------------------------|
G|---------------------------------------------------------------------------|
D|---------------------------------------------------------------------------|
A|---------------------------------------------------------------------------|
E|-1-1-1-1-1-1-1-1-1-1-1-1-0-0-0-0-1-1-1-1-1-1-1-1-1-1-1-1-0-0-0-0-----------|

e|---------------------------------------------------------------------------|
B|---------------------------------------------------------------------------|
G|---------------------------------------------------------------------------|
D|---------------------------------------------------------------------------|
A|-2-2-2-2-2-2-2-2-2-2-2-2-----------------1-1-1-1-1-1-1-1-------------------|
E|-------------------------4-4-4-4-4-4-4-4-----------------------------------|

Guitar 1&2 x 1
e|---------------------------------------------------------------------------|
B|---------------------------------------------------------------------------|
G|---------------------------------------------------------------------------|
D|---------------------------------------------------------------------------|
A|-2-2-2-2-2-2-2-2-2-2-2-2-2-2-2-2-4-4-4-4-4-4-4-4-4-4-4-4-4-4-4-4-----------|
E|---------------------------------------------------------------------------|

e|---------------------------------------------------------------------------|
B|---------------------------------------------------------------------------|
G|---------------------------------------------------------------------------|
D|---------------------------------------------------------------------------|
A|---------------------------------------------------------------------------|
E|-1-1-1-1-1-1-1-1-1-1-1-1-3-3-3-3-4-4-4-4-4-4-4-4-4-4-4-4-4-4-4-4-----------|

e|---------------------------------------------------------------------------|
B|---------------------------------------------------------------------------|
G|---------------------------------3-4-3-4-3-4-3-4-3-------------------------|
D|---------------------------------3-4-3-4-3-4-3-4-3-------------------------|
A|-2-2-2-2-2-2-2-2-2-2-2-2-2-2-2-2-1-2-1-2-1-2-1-2-1-------------------------|
E|---------------------------------------------------------------------------|


OUTRO 3:08
Guitar 1 x1
e|---------------------------------------------------------------------------|
B|---------------------------------------------------------------------------|
G|-3~33~~3-4323~-33~33~~3-4323~-3--------------------------------------------|
D|---------------------------------------------------------------------------|
A|---------------------------------------------------------------------------|
E|---------------------------------------------------------------------------|

Guitar 2 x4
e|---------------------------------------------------------------------------|
B|---------------------------------------------------------------------------|
G|---------------------------------------------------------------------------|
D|---------------------------------------------------------------------------|
A|---------------------------------------------------------------------------|
E|-1-1-1-1-1-1-1-1-0-0-0-0-0-0-0-0-------------------------------------------|


Guitar 1 x1
e|---------------------------------------------------------------------------|
B|---------------------------------------------------------------------------|
G|-33~33~~3-4323~-33~33~~3-43233-23------------------------------------------|
D|---------------------------------------------------------------------------|
A|---------------------------------------------------------------------------|
E|---------------------------------------------------------------------------|

Guitar 2 x3
e|---------------------------------------------------------------------------|
B|---------------------------------------------------------------------------|
G|---------------------------------------------------------------------------|
D|---------------------------------------------------------------------------|
A|---------------------------------------------------------------------------|
E|-1-1-1-1-1-1-1-1-0-0-0-0-0-0-0-0-------------------------------------------|

Guitar 2 x1
e|-------------------------------------------|
B|-------------------------------------------|
G|-------------------------------------------|
D|------3-4-6-4-3----------------------------|
A|------1-2-4-2-1-6-4-2-1--------------------|
E|----------------6-4-2-1--------------------|

END.

************************************

| /   slide up
| \   slide down
| h   hammer-on
| p   pull-off
| ~   vibrato
| +   harmonic
| x   Mute note
| b   Bend
| pb  Pre-bend
| br  Bend release
| pbr Pre-bend release
| brb Bend release bend

************************************

            
            
Suggest correction
Creating personal tab
Creating personal tab
You can edit any tab online and save it as your Personal.

You can edit, replace or remove any tab part or add personal notes – all changes will be seen only by you.

Personal tabs can be accessed anytime from any device, even offline.
Learn more »
Give kudos to tab author, rate the tab!
1 2 3 4 5
comments
print report bad tab
1 comment total.
0 reply
Awesomeniss200 10 Feb 13, 2016 10:56 AM

You can have it in normal tuning if you play the intro one fret lower

guest
You may want to rate the tab now too:
select rating
Wanna post a correction for this tab? Suggest correction