Oops, an error
Loading. Please wait.

Partners In Crime Tab

3,651 views 24 this week
no commentswrite comment
1 2 3 4 5
accurate
x 3
add to favorites
launch autoscroll
font size
0
reset
how to read this tab
guitar tuner
Tab Pro tools
  • play this tab
  • loop segment
  • change instrument
  • show fretboard
  • metronome
×
Best way to learn
"Partners In Crime"
Autoscroll
slow
fast
+/-
esc
set tempo
stop
Contributor
Difficulty
Tuning
intermediate
D A D G B E
INTRO (part 1)

Electric 1
Clean (picked)           Picking Pattern
E|----------------|      |-------------|
B|----------------|      |-------------|
G|-15-14-18-18-17-|      |-x---x---x---|
D|-15-15-15-15-15-| -->  |---x---x---x-|
A|----------------|      |-------------|
D|----------------|      |-------------|

INTRO (part 2)

JUST BASS AND VIOLIN

INTRO (part 3)

Electric 1

E|-----------------------------------------------|
B|-------14--------16-18-14-16-13-14-18-16-14-13-|
G|-15-------17-x2--------------------------------|
D|----15-----------------------------------------| x2
A|-----------------------------------------------|
D|-----------------------------------------------|

Electric 2

E|--------|
B|--------|
G|--------|
D|-8-11-7-|
A|-8-11-7-|
D|-8-11-7-|

VERSE (part 1)

Electric 2
(listen to song for pattern)
E|----------|
B|----------|
G|----------|
D|----------|
A|----------|
D|-8-11-7-3-|

VERSE (part 2)

Electric 2
(mix mutes and full strums)
E|----------|
B|----------|
G|----------|
D|-8-11-7-3-|
A|-8-11-7-3-|
D|-8-11-7-3-|

PRE-CHORUS

Electric 1+2

E|---------------|
B|---------------|
G|---------------|
D|-1-3-4-3-1-6-8-| x2
A|-1-3-4-3-1-6-8-|
D|-1-3-4-3-1-6-8-|

CHORUS

Electric 1

E|---------------------------------------------------------------|
B|------------18-16----------18141814-16141614-13141314-18161413-|
G|-1515-18-15-------18-17-x2-------------------------------------|
D|---------------------------------------------------------------|
A|---------------------------------------------------------------|
D|---------------------------------------------------------------|

Electric 2

E|------------|
B|------------|
G|------------|
D|-8-7-11-4-3-|
A|-8-7-11-4-3-|
D|-8-7-11-4-3-|

INTRO (part 3)

VERSE (part 1+2)

PRE-CHORUS (variation)

Electric 1+2

E|--------------------------------|
B|--------------------------------|
G|--------------------------------|
D|-1-3-4-3-1-6-8--1-3-4-3-1-4-6-8-|
A|-1-3-4-3-1-6-8--1-3-4-3-1-4-6-8-|
D|-1-3-4-3-1-6-8--1-3-4-3-1-4-6-8-|

CHORUS

BRIDGE

Electric 1

E|---------------------------------------------------------------|
B|------------18-16----------18141814-16141614-13141314-18161413-|
G|-1515-18-15-------18-17-x2-------------------------------------|
D|---------------------------------------------------------------|
A|---------------------------------------------------------------|
D|---------------------------------------------------------------|

Electric 2

E|-------------------|
B|-------------------|
G|-------------------|
D|-8-11-8-11-7-4-4-3-|
A|-8-11-8-11-7-4-4-3-|
D|-8-11-8-11-7-4-4-3-|

CHORUS

INTRO (part 3)

comments
We did not receive enough feedback on this tab! Please rate:
print report bad tab
1 2 3 4 5
I want to post or [tab]
guest
You may want to rate the tab now too:
select rating
Please do not post tabs as comments. Select "correction" instead!