Oops, an error
Loading. Please wait.

Swan Song Tab

2,239 views 18 this week
no commentswrite comment
1 2 3 4 5
excellent!
x 2
add to favorites
launch autoscroll
font size
0
reset
how to read this tab
guitar tuner
Tab Pro tools
  • play this tab
  • loop segment
  • change instrument
  • show fretboard
  • metronome
Autoscroll
slow
fast
+/-
esc
set tempo
stop
Contributor
Difficulty
Tuning
intermediate
D A D G B E
INTRO (part 1)

Electric 2

E|--------------------------|
B|--------------------------|
G|--------------------------|
D|-10-----22h52h52-00h50h50-| x2
A|-10-x12-22h52h52-00h50h50-|
D|-10-----22h52h52-00h50h50-|

INTRO (part 2)

Electric 1

E|--------------------------------------------------------|
B|--------------------------------------------------------|
G|-12/11/12-12/11/12-16/17/16-14----12\11/12-12\11/12-7/9-|
D|-x--x--x--x--x--x--x--x--x--x-----x--x--x--x--x--x--x-x-|
A|-10/9-/10-10/9-/10-14/15/14-12----10\9-/10-10\9-/10-5/7-|
D|--------------------------------------------------------|

|---------------------------------------------------------------|
|---------------------------------------------------------------|
|-12/11/12-12/11/12-16/17/16-14-12r11r9-14r12r11-16r14r12-16bbb-|
|-x--x--x--x--x--x--x--x--x--x----------------------------------|
|-10/9-/10-10/9-/10-14/15/14-12---------------------------------|
|---------------------------------------------------------------|

Electric 2

E|-----------------|
B|-----------------|
G|-----------------|
D|-2-5-2-0-2-5-7-9-|
A|-2-5-2-0-2-5-7-9-|
D|-2-5-2-0-2-5-7-9-|

VERSE (part 1)

Electric 2

E|------------------------|
B|------------------------|
G|-9-12-14-9-12-----------|
D|-9-12-14-9-12-7-5-4-5-2-|
A|-7-10-12-7-10-7-5-4-5-2-|
D|--------------7-5-4-5-2-|

VERSE (part 2)

Electric 1

E|-------------------------------------------------------|
B|-------------------------------------------------------|
G|----12----14-12----12----14-16----12----14-16-14-12----|
D|-14----14-------14----14-------14----14-------------14-|
A|-------------------------------------------------------|
D|-------------------------------------------------------|

Electric 2
(quiet pm)
E|-------|
B|-------|
G|-------|
D|-2-5-7-|
A|-2-5-7-|
D|-2-5-7-|

PRE-CHORUS

Electric 1+2

E|--------------------|
B|--------------------|
G|--------------------|
D|-2-5-10-9-2-5-10-12-|
A|-2-5-10-9-2-5-10-12-|
D|-2-5-10-9-2-5-10-12-|

CHORUS

Electric 1

E|--------------------|
B|--------------------|
G|-12-14-16-14-12-9-7-|
A|-10-12-14-12-10-7-5-|
D|--------------------|

Electric 2

E|--------------------|
B|--------------------|
G|--------------------|
D|-10-2-5-10-14-12-10-|
A|-10-2-5-10-14-12-10-|
D|-10-2-5-10-14-12-10-|

VERSE (part 1+2)

PRE-CHORUS

CHORUS

BRIDGE (part 1)

Electric 1
Clean
E|----|
B|----|
G|-12-|
D|-12-|
A|-10-|
D|----|

BRIDGE (part 2)

Electric 1

E|---------------|
B|---------------|
G|-9-11-16-17-19-|
D|-x-x--x--x--x--|
A|-7-9--14-15-17-|
D|---------------|

Electric 2

E|------|
B|------|
G|------|
D|-10-2-|
A|-10-2-|
D|-10-2-|

BRIDGE (part 3)

Electric 1

E|-------------|
B|-------------|
G|-12-11-14-16-|
D|-x--x--x--x--|
A|-10-9--12-14-|
D|-------------|

Electric 2

E|---------|
B|---------|
G|---------|
D|-2-4-5-7-|
A|-2-4-5-7-|
D|-2-4-5-7-|

BRIDGE (part 4)

Electric 1

E|----|
B|----|
G|-16-|
D|-x--|
A|-14-|
D|----|

Electric 2

E|----|
B|----|
G|----|
D|-10-|
A|-10-|
D|-10-|

PRE-CHORUS

Electric 2

E|--------|
B|--------|
G|-9-12-7-|
D|-9-12-7-|
A|-7-10-5-|
D|--------|

CHORUS
comments
We did not receive enough feedback on this tab! Please rate:
print report bad tab
1 2 3 4 5
I want to post or [tab]
guest
You may want to rate the tab now too:
select rating
Please do not post tabs as comments. Select "correction" instead!