Oops, an error
Loading. Please wait.

Third Wheel Tab

426 views 6 this week
no commentswrite comment
1 2 3 4 5
please rate
add to favorites
launch autoscroll
font size
0
reset
how to read this tab
guitar tuner
Autoscroll
slow
fast
+/-
esc
set tempo
stop
Help us to improve Ultimate-Guitar.com Take our survey!
×
Author
Difficulty
Tuning
intermediate
D A D G B E
INTRO

Electric 2
E|-------------|
B|-------------|
G|-------------|
D|-x-6-9-2-4-5-|
A|-x-6-9-2-4-5-|
D|-x-6-9-2-4-5-|

Electric 1/Violin

E|----------------------------------------------------|
B|----------------------------------------------------|
G|-16-15-------16-15----------------------------------|
D|-------18----------18-------------14----------16-14-|
A|----------18----------18-16-14-16----16-14-16-------|
D|----------------------------------------------------|

------------------------------------------------|
------------------------------------------------|
--16-15-------16-15-------------------13-15-16b-|
--------18----------18----------14-16-----------|
-----------18----------18-16-14-----------------|
------------------------------------------------|

VERSE

Electric 2

E|-------------------|
B|-------------------|
G|-------------------|
D|-9-2-4-5-6-9-2-4-5-|
A|-9-2-4-5-6-9-2-4-5-|
D|-9-2-4-5-6-9-2-4-5-|

PRE-CHORUS

Electric 1
(hard to tell) (end with...)
E|-7--6---------11-|
B|-9--7---------12-|
G|-8--6---------11-| (listen to the song for the pattern)
D|-----------------|
A|-----------------|
D|-----------------|

Electric 2

E|-----------|
B|-----------|
G|-----------|
D|-6-2-9-4-5-|
A|-6-2-9-4-5-|
D|-6-2-9-4-5-|

CHORUS

Electric 1/Violin

E|----------------------------------------------------|
B|----------------------------------------------------|
G|-16-15-------16-15----------------------------------|
D|-------18----------18-------------14----------16-14-|
A|----------18----------18-16-14-16----16-14-16-------|
D|----------------------------------------------------|

------------------------------------------------|
------------------------------------------------|
--16-15-------16-15-------------------13-15-16b-|
--------18----------18----------14-16-----------|
-----------18----------18-16-14-----------------|
------------------------------------------------|

Electric 2

E|-----------|
B|-----------|
G|-----------|
D|-6-9-2-4-5-|
A|-6-9-2-4-5-|
D|-6-9-2-4-5-|

VERSE

PRE-CHORUS

BRIDGE

Electric 1

E|----------------------------------------------------------|
B|----------------------------------------------------------|
G|-13-16\15--18-20-18-16-15-13-11--13-16\15--18-20-18-16-15-|
D|-x--x--x---x--x--x--x--x--x--x---x--x--x---x--x--x--x--x--|
A|-11-14\13--16-18-10-14-13-11-9---11-14\13--16-18-16-14-13-|
D|----------------------------------------------------------|

--------------------------------------------------------|
------------------------------------------------19/21b\-|
-13-16\15--18-20-18-16-15-13-11--13-15-16-18-20---------|
-x--x--x---x--x--x--x--x--x--x---x--x--x--x--x----------|
-11-14\13--16-18-10-14-13-11-9---11-13-14-16-18---------|
--------------------------------------------------------|

Electric 2

E|-----------|
B|-----------|
G|-----------|
D|-2-4-1-6-4-|
A|-2-4-1-6-4-|
D|-2-4-1-6-4-|

OUTRO/SOLO

Electric 2
E|-------------|
B|-------------|
G|-------------|
D|-x-6-9-2-4-5-|
A|-x-6-9-2-4-5-|
D|-x-6-9-2-4-5-|

Violin

E|----------------------------------------------------|
B|----------------------------------------------------|
G|-16-15-------16-15----------------------------------|
D|-------18----------18-------------14----------16-14-|
A|----------18----------18-16-14-16----16-14-16-------|
D|----------------------------------------------------|

------------------------------------------------|
------------------------------------------------|
--16-15-------16-15-------------------13-15-16b-|
--------18----------18----------14-16-----------|
-----------18----------18-16-14-----------------|
------------------------------------------------|

Electric 1
                              (play these notes fast
                               multiple times)
E|--------------------------------------------|
B|--------------------------------------------|
G|-16-15-------16-15--------------------------|
D|-------18----------18-----------------18----|
A|----------18----------18-16--14-16-15----18-|
D|--------------------------------------------|

--------------------------------------14/16\-|
--16-14-------16-14-------------14-16--------|
--------16-13-------16-13-13-16--------------|
---------------------------------------------|
---------------------------------------------|
---------------------------------------------|

CHORUS
Suggest correction
Give kudos to tab author, rate the tab!
1 2 3 4 5
comments
print report bad tab
guest
You may want to rate the tab now too:
select rating
Wanna post a correction for this tab? Suggest correction