Oops, an error
Loading. Please wait.

Wolf In Sheeps Clothing bass

4,489 views 30 this week
1 commentread comment
1 2 3 4 5
x 5
add to favorites
×
Save as Personal and add changes to this tab that will be seen only by you. Learn more ›
×
You can save this tab as Personal to edit and correct it or add notes. All changes will be seen only by you. Learn more »
launch autoscroll
font size
0
reset
guitar tuner
edit
Autoscroll
slow
fast
+/-
esc
set tempo
stop
Author
Difficulty
*Parts of this song utilize the B String on a 5 String Bass

  Verse 0:17
G|-------------------------------------------------------------------|
D|o-----------------------------------------------------------------o|
A|o-2-2---2-2-2-5-5-2-2---2-2-2-5-5-------------5-5-----------------o|
E|----------------------------------3-3---3-3-3-----2-2---2-2-2-5-5--|
    1 + 2 + 3 + 4 + 1 + 2 + 3 + 4 + 1 + 2 + 3 + 4 + 1 + 2 + 3 + 4 +

  Pre-Chorus
G|---------------------------------|
D|---------------------------------|
A|---------------------------------|
E|-3---------------5---------------|
   1 + 2 + 3 + 4 + 1 + 2 + 3 + 4 +

  Chorus
G|-----------------------------------------------------------------|
D|-----------------------------------------------------------------|
A|-----------------2---2---2---2-2-0---0---0---0-0-0---0-0-0-r-2---|
E|-3---3---3---3-3-------------------------------------------------|
   1 + 2 + 3 + 4 + 1 + 2 + 3 + 4 + 1 + 2 + 3 + 4 + 1 + 2 + 3 + 4 +

G|-----------------------------------------------------------------|
D|-----------------------------------------------------------------|
A|-----------------2---2---2---2-2-0---0---0---0---0---0-0-0---0---|
E|-3---3---3---3-3-------------------------------------------------|
   1 + 2 + 3 + 4 + 1 + 2 + 3 + 4 + 1 + 2 + 3 + 4 + 1 + 2 + 3 + 4 +

G|-----------------------------------------------------------------|
D|-----------------------------------------------------------------|
A|-----------------0---0---0---0-----------1---1---2---2---2-r-0---|
E|-3---3---3---3-------------------2---2---------------------------|
   1 + 2 + 3 + 4 + 1 + 2 + 3 + 4 + 1 + 2 + 3 + 4 + 1 + 2 + 3 + 4 +

G|---------------------------------|
D|---------------------------------|
A|---------------------------------|
E|-3---3---3---3---2---------------|
   1 + 2 + 3 + 4 + 1 + 2 + 3 + 4 +

  Interlude
G|-----------------------------------------------------------------|
D|-----------------------------------------------------------------|
A|-2-2---2-2-2-5-5-2-2---2-2-2-5-5-------------5-5-----------------|
E|---------------------------------3-3---3-3-3-----2-2---2-2-2-5-5-|
   1 + 2 + 3 + 4 + 1 + 2 + 3 + 4 + 1 + 2 + 3 + 4 + 1 + 2 + 3 + 4 +

  Rest

  Verse
G|-------------------------------------------------------------------|
D|o-----------------------------------------------------------------o|
A|o-2-2---2-2-2-5-5-2-2---2-2-2-5-5-------------5-5-----------------o|
E|----------------------------------3-3---3-3-3-----2-2---2-2-2-5-5--|
    1 + 2 + 3 + 4 + 1 + 2 + 3 + 4 + 1 + 2 + 3 + 4 + 1 + 2 + 3 + 4 +

  Pre-Chorus
G|---------------------------------|
D|---------------------------------|
A|---------------------------------|
E|-3---------------5---------------|
   1 + 2 + 3 + 4 + 1 + 2 + 3 + 4 +

  Chorus
G|-----------------------------------------------------------------|
D|-----------------------------------------------------------------|
A|-----------------2---2---2---2-2-0---0---0---0-0-0---0-0-0-r-2---|
E|-3---3---3---3-3-------------------------------------------------|
   1 + 2 + 3 + 4 + 1 + 2 + 3 + 4 + 1 + 2 + 3 + 4 + 1 + 2 + 3 + 4 +

G|-----------------------------------------------------------------|
D|-----------------------------------------------------------------|
A|-----------------2---2---2---2-2-0---0---0---0---0---0-0-0---0---|
E|-3---3---3---3-3-------------------------------------------------|
   1 + 2 + 3 + 4 + 1 + 2 + 3 + 4 + 1 + 2 + 3 + 4 + 1 + 2 + 3 + 4 +

G|-----------------------------------------------------------------|
D|-----------------------------------------------------------------|
A|-----------------0---0---0---0-----------1---1---2---2---2-r-0---|
E|-3---3---3---3-------------------2---2---------------------------|
   1 + 2 + 3 + 4 + 1 + 2 + 3 + 4 + 1 + 2 + 3 + 4 + 1 + 2 + 3 + 4 +

G|---------------------------------|
D|-----------------4---------------|
A|---------------------7---5---4---|
E|-3---3---3---3-------------------|
   1 + 2 + 3 + 4 + 1 + 2 + 3 + 4 +

  Bridge x2
G|-------------------------------------------------------------------|
D|o-----------------------------------------------------------------o|
A|--5---5-----------4-------4---------------------------4-4-5-5-7-7--|
E|o---------------------5-------5---3---3---3---3---5-5-------------o|
B|----------3-----3--------------------------------------------------|
    1 2 3 4 1 2 3 4 1 2 3 4 1 2 3 4 1 2 3 4 1 2 3 4 1 2 3 4 1 2 3 4 

  Who Am I Kidding?
G|-----------------------------------------------------------------|
D|-----------------------------------------------------------------|
A|-----------------------------------------------------------2-1---|
E|-----------------------------------------------------------------|
   1 e + a 2 e + a 3 e + a 4 e + a 1 e + a 2 e + a 3 e + a 4 e + a

G|-----------------------------------------------------------------|
D|-----------------------------------------------------------------|
A|-2---------------------------------------------------------2-1---|
E|-----------------------------------------------------------------|
   1 e + a 2 e + a 3 e + a 4 e + a 1 e + a 2 e + a 3 e + a 4 e + a

G|-----------------------------------------------------------------|
D|-------------------------------------------------4---------------|
A|-2---------2-1---2---------2-1---2-------------------7---5---4---|
E|-----------------------------------------------------------------|
   1 e + a 2 e + a 3 e + a 4 e + a 1 e + a 2 e + a 3 e + a 4 e + a

  Burn In Hell
G|-----------------------------------------------------------------|
D|-----------------------------------------------------------------|
A|-2-2-2-2-2-2-5---2-2-2-2-2-2-5---------------5-------------------|
E|---------------------------------3-3-3-3-3-3-----2-2-2-2-2-2-5---|
   1 + 2 + 3 + 4 + 1 + 2 + 3 + 4 + 1 + 2 + 3 + 4 + 1 + 2 + 3 + 4 +

G|---------------------------------------------------------------------------------|
D|-----------------------------------------------------------------4---------------|
A|-2-2-2-2-2-2-5---------------5---------------5-------1---2---4-------7---5---4---|
E|---------------------------------3-3-3-3-3-3-----2-------------------------------|
B|-----------------0-0-0-0-0-0-----------------------------------------------------|
   1 + 2 + 3 + 4 + 1 + 2 + 3 + 4 + 1 + 2 + 3 + 4 + 1 + 2 + 3 + 4 + 1 + 2 + 3 + 4 +

  Chorus
G|-----------------------------------------------------------------|
D|-----------------------------------------------------------------|
A|-----------------2---2---2---2-2-0---0---0---0-0-0---0-0-0-r-2---|
E|-3---3---3---3-3-------------------------------------------------|
   1 + 2 + 3 + 4 + 1 + 2 + 3 + 4 + 1 + 2 + 3 + 4 + 1 + 2 + 3 + 4 +

G|-----------------------------------------------------------------|
D|-----------------------------------------------------------------|
A|-----------------2---2---2---2-2-0---0---0---0---0---0-0-0---0---|
E|-3---3---3---3-3-------------------------------------------------|
   1 + 2 + 3 + 4 + 1 + 2 + 3 + 4 + 1 + 2 + 3 + 4 + 1 + 2 + 3 + 4 +

G|-----------------------------------------------------------------|
D|-----------------------------------------------------------------|
A|-----------------0---0---0---0-----------1---1---2---2---2-r-0---|
E|-3---3---3---3-------------------2---2---------------------------|
   1 + 2 + 3 + 4 + 1 + 2 + 3 + 4 + 1 + 2 + 3 + 4 + 1 + 2 + 3 + 4 +

G|---------------------------------|
D|---------------------------------|
A|---------------------------------|
E|---------------------------------|
B|-8---8---8---8---7-------\-------|
   1 + 2 + 3 + 4 + 1 + 2 + 3 + 4 +

  Outro
G|-----------------------------------------------------------------|
D|-----------------------------------------------------------------|
A|-2-2---2-2-2-5-5-2-2---2-2-2-5-5-------------5-5-----------------|
E|---------------------------------3-3---3-3-3-----2-2---2-2-2-5-5-|
   1 + 2 + 3 + 4 + 1 + 2 + 3 + 4 + 1 + 2 + 3 + 4 + 1 + 2 + 3 + 4 +

G|-----------------------------------------------------------------|
D|-----------------------------------------------------------------|
A|-2-2---2-2-2-5-5-2-2---2-2-2-5-5-------------5-------------------|
E|---------------------------------3---------3-----2---------2-5---|
   1 + 2 + 3 + 4 + 1 + 2 + 3 + 4 + 1 + 2 + 3 + 4 + 1 + 2 + 3 + 4 +

G|-----------------------------------------------------------------|
D|-----------------------------------------------------------------|
A|-2---------------------------------------------------------------|
E|-----------------------------------------------------------------|
   1 + 2 + 3 + 4 + 1 + 2 + 3 + 4 + 1 + 2 + 3 + 4 + 1 + 2 + 3 + 4 +

Tabbed By Jack Mills

            
            
Suggest correction
Creating personal tab
Creating personal tab
You can edit any tab online and save it as your Personal.

You can edit, replace or remove any tab part or add personal notes – all changes will be seen only by you.

Personal tabs can be accessed anytime from any device, even offline.
Learn more »
comments
print report bad tab
1 comment total.
0 reply
emmamei88 10 Dec 13, 2015 12:20 PM

I figured this out by ear and wanted to double check, and we got the same thing so I think this is just about perfect (even though I only have a 4 string)

guest
You may want to rate the tab now too:
select rating
Wanna post a correction for this tab? Suggest correction