Oops, an error
Loading. Please wait.

Wolf In Sheeps Clothing tab

version 1
version 1

Whole song

16,857 views 273 this week
6 commentsread comments
1 2 3 4 5
x 4
add to favorites
×
Save as Personal and add changes to this tab that will be seen only by you. Learn more ›
×
You can save this tab as Personal to edit and correct it or add notes. All changes will be seen only by you. Learn more »
launch autoscroll
font size
0
reset
how to read this tab
guitar tuner
edit
Autoscroll
slow
fast
+/-
esc
set tempo
stop
-------------------------------------------------------------------------------
                   Wolf In Sheep's Clothing - Set If Off
-------------------------------------------------------------------------------
Tabbed by:
E-mail: Claine
                 Theres Still something missing cause i couldnt hear that out. sry :)
                    but i hope it is correct at least almost :D
Tuning: Drop-C#


[Intro]

Both Guitars
d#|---------------------------------------------------|
G#|---------------------------------------------------|
F#|---------------------------------------------------|
C#|---------------------------------------------------|
G#|--3-3--3-3-6--3-3--3-3-6----------/6----------/5---|
C#|--------------------------6-6--6-6----5-5--5-5-----|

Start of Cody's singing
d#|---------------------------------------------------|
G#|---------------------------------------------------|
F#|---------------------------------------------------|
C#|---------------------------------------------------|
G#|--3-3--3-3-6--3-3--3-3-6----------/6----------/5---|
C#|--------------------------6-6--6-6----5-5--5-5-----|

d#|-------------------------------------------|
G#|-------------------------------------------|
F#|-------------------------------------------|
C#|-------------------------------------------|
G#|--3-3--3-3-6--3-3--3-3-6----------/6-------|
C#|--------------------------6-6--6-6----5-5--|

d#|---------------------------------------------------|
G#|---------------------------------------------------|
F#|---------------------------------------------------|
C#|---------------------------------------------------|
G#|--3-3--3-3-6--3-3--3-3-6----------/6----------/5---|
C#|--------------------------6-6--6-6----5-5--5-5-----|

d#|---------------------------------------------------|
G#|---------------------------------------------------|
F#|---------------------------------------------------|
C#|---------------------------------------------------|
G#|--3-3--3-3-6--3-3--3-3-6----------/6----------/5---|
C#|--------------------------6-6--6-6----5-5--5-5-----|

Palm muted
d#|------------------------------|
G#|------------------------------|
F#|------------------------------|
C#|------------------------------|
G#|--3-3-3-3-3-3--5-5-5--6-6-6---|
C#|------------------------------|


[Chorus]

Guitar 1
d#|------------------------------------------------|
G#|------------------------------------------------|
F#|----5-5-5-5-/-12-12-12-12-\--8-8-8-8-8-8--------|
C#|----x-x-x-x----x--x--x--x----x-x-x-x-x-x--------|
G#|----3-3-3-3-/-10-10-10-10-\--6-6-6-6-6-6--------|
C#|------------------------------------------------|
Guitar 2
d#|------------------------------------------------|
G#|------------------------------------------------|
F#|----8-8-8-8----5-5-5-5--------------------------|
C#|----8-8-8-8----5-5-5-5----8-8-8-8-8-8-8-8---10--|
G#|----6-6-6-6----3-3-3-3----8-8-8-8-8-8-8-8---10--|
C#|--------------------------8-8-8-8-8-8-8-8---10--|
Guitar 1
d#|------------------------------------------------|
G#|------------------------------------------------|
F#|----5-5-5-5-/-12-12-12-12-\--8-8-8-8-8-8--------|
C#|----x-x-x-x----x--x--x--x----x-x-x-x-x-x--------|
G#|----3-3-3-3-/-10-10-10-10-\--6-6-6-6-6-6--------|
C#|------------------------------------------------|
Guitar 2
d#|------------------------------------------------|
G#|------------------------------------------------|
F#|----8-8-8-8----5-5-5-5--------------------------|
C#|----8-8-8-8----5-5-5-5----8-8-8-8-8-8-8-8-------|
G#|----6-6-6-6----3-3-3-3----8-8-8-8-8-8-8-8-------|
C#|--------------------------8-8-8-8-8-8-8-8-------|
Guitar 1
d#|---------------------------------------------------------------------------|
G#|---------------------------------------------------------------------------|
F#|---------------------------------------------------------------------------|
C#|---------------------------------------------------------------------------|
G#|---------------------------------------------------------------------------|
C#|---------------------------------------------------------------------------|
Guitar 2
d#|---------------------------------------------------------------------------|
G#|---------------------------------------------------------------------------|
F#|---------------------------------------------------------------------------|
C#|----6-6-6-6---8-8-8-8---5-5-5-5---10-10--8-8---5-5-5-5---6-6-6-6-----------|
G#|----6-6-6-6---8-8-8-8---5-5-5-5---10-10--8-8---5-5-5-5---6-6-6-6-----------|
C#|----6-6-6-6---8-8-8-8---5-5-5-5---10-10--8-8---5-5-5-5---6-6-6-6-----------|

Both Guitars
d#|---------------------------------------------------|
G#|---------------------------------------------------|
F#|---------------------------------------------------|
C#|---------------------------------------------------|
G#|--3-3--3-3-6--3-3--3-3-6----------/6----------/5---|
C#|--------------------------6-6--6-6----5-5--5-5-----|
Bass huehuehue
G|--2-2--2-2-5--2-2--2-2-5-----------/5----------/4--| \ 
D|---------------------------5-5--5-5----4-4--4-4----|   Hope this is correct
A|---------------------------------------------------|   'cause i dont play Bass :D
E|---------------------------------------------------| / 
Both guitars Palm muted
d#|---------------------------------------------------|
G#|---------------------------------------------------|
F#|---------------------------------------------------|
C#|---------------------------------------------------|
G#|--3-3--3-3-6--3-3--3-3-6----------/6---------------|
C#|--------------------------6-6--6-6----5-5----------|
Both guitars not Palm muted
d#|---------------------------------------------------|
G#|---------------------------------------------------|
F#|---------------------------------------------------|
C#|---------------------------------------------------|
G#|--3-3--3-3-6--3-3--3-3-6----------/6---------------|
C#|--------------------------6-6--6-6----5-5----------|
Both guitars
d#|---------------------------------------------------|
G#|---------------------------------------------------|
F#|---------------------------------------------------|
C#|---------------------------------------------------|
G#|--3-3--3-3-6--3-3--3-3-6----------/6---------------|
C#|--------------------------6-6--6-6----5-5----------|

Palm muted
d#|------------------------------|
G#|------------------------------|
F#|------------------------------|
C#|------------------------------|
G#|--3-3-3-3-3-3--5-5-5--6-6-6---|
C#|------------------------------|


[Chorus]

Guitar 1
d#|------------------------------------------------|
G#|------------------------------------------------|
F#|----5-5-5-5-/-12-12-12-12-\--8-8-8-8-8-8--------|
C#|----x-x-x-x----x--x--x--x----x-x-x-x-x-x--------|
G#|----3-3-3-3-/-10-10-10-10-\--6-6-6-6-6-6--------|
C#|------------------------------------------------|
Guitar 2
d#|------------------------------------------------|
G#|------------------------------------------------|
F#|----8-8-8-8----5-5-5-5--------------------------|
C#|----8-8-8-8----5-5-5-5----8-8-8-8-8-8-8-8---10--|
G#|----6-6-6-6----3-3-3-3----8-8-8-8-8-8-8-8---10--|
C#|--------------------------8-8-8-8-8-8-8-8---10--|
Guitar 1
d#|------------------------------------------------|
G#|------------------------------------------------|
F#|----5-5-5-5-/-12-12-12-12-\--8-8-8-8-8-8--------|
C#|----x-x-x-x----x--x--x--x----x-x-x-x-x-x--------|
G#|----3-3-3-3-/-10-10-10-10-\--6-6-6-6-6-6--------|
C#|------------------------------------------------|
Guitar 2
d#|------------------------------------------------|
G#|------------------------------------------------|
F#|----8-8-8-8----5-5-5-5--------------------------|
C#|----8-8-8-8----5-5-5-5----8-8-8-8-8-8-8-8-------|
G#|----6-6-6-6----3-3-3-3----8-8-8-8-8-8-8-8-------|
C#|--------------------------8-8-8-8-8-8-8-8-------|
Guitar 1
d#|---------------------------------------------------------------------------|
G#|---------------------------------------------------------------------------|
F#|---------------------------------------------------------------------------|
C#|---------------------------------------------------------------------------|
G#|---------------------------------------------------------------------------|
C#|---------------------------------------------------------------------------|
Guitar 2
d#|---------------------------------------------------------------------------|
G#|---------------------------------------------------------------------------|
F#|---------------------------------------------------------------------------|
C#|----6-6-6-6---8-8-8-8---5-5-5-5---10-10--8-8---5-5-5-5---6-6-6-6-----------|
G#|----6-6-6-6---8-8-8-8---5-5-5-5---10-10--8-8---5-5-5-5---6-6-6-6-----------|
C#|----6-6-6-6---8-8-8-8---5-5-5-5---10-10--8-8---5-5-5-5---6-6-6-6-----------|


[Bridge]

Guitar 1
d#|---------------------------------------------------------------------------|
G#|---------------------------------------------------------------------------|
F#|---------------------------------------------------------------------------|
C#|---------------------------------------------------------------------------|
G#|---------------------------------------------------------------------------|
C#|---------------------------------------------------------------------------|
Guitar 2
d#|---------------------------------------------------------------------------|
G#|---------------------------------------------------------------------------|
F#|---8-8-8-8-----------------------------------------------------------------|
C#|---8-8-8-8--8-8-8-8--6-6-6-6--5-5-5-6-6-6----------------------------------|
G#|---6-6-6-6--8-8-8-8--6-6-6-6--5-5-5-6-6-6----------------------------------|
C#|------------8-8-8-8--6-6-6-6--5-5-5-6-6-6----------------------------------|
Guitar 1
d#|---------------------------------------------------------------------------|
G#|---------------------------------------------------------------------------|
F#|---------------------------------------------------------------------------|
C#|---------------------------------------------------------------------------|
G#|---------------------------------------------------------------------------|
C#|---------------------------------------------------------------------------|
Guitar 2
d#|---------------------------------------------------------------------------|
G#|---------------------------------------------------------------------------|
F#|---8-8-8-8-----------------------------------------------------------------|
C#|---8-8-8-8--8-8-8-8--10-10-10-10---8-8-8-10-10-10--------------------------|
G#|---6-6-6-6--8-8-8-8--10-10-10-10---8-8-8-10-10-10--------------------------|
C#|------------8-8-8-8--10-10-10-10---8-8-8-10-10-10--------------------------|
Guitar 2 palm muted
d#|----------------------------------------|
G#|----------------------------------------|
F#|-------------9-9-----------9-9---\------|
C#|-------------9-9-----------9-9-----2x---| at the second repeat u dont play the 2nd 3-3
G#|--3-3--3-3-------3-3--3-3--------/------|
C#|----------------------------------------|
Guitar 1 (SOLO!!!)
d#|------------------------------------------------------------------------------------------------|
G#|------------------------------------------------------------------------------------------------|
F#|----10-12h13p12-12h13p12--10-12h13p12-12h13p12---10-12h13p12-12h13p12---10-12h13p12-12-13/17----|
C#|------------------------------------------------------------------------------------------------|
G#|------------------------------------------------------------------------------------------------|
C#|------------------------------------------------------------------------------------------------|
Guitar 1
d#|--------------------------------------------------------------------|
G#|----13-15h16-15h16p15---13-15h16p15-15h16p15--18-16-15h16p15--------|
F#|--------------------------------------------------------------------|
C#|--------------------------------------------------------------------|
G#|--------------------------------------------------------------------|
C#|--------------------------------------------------------------------|

d#|-----------------------------------------------------------------------------------|
G#|----13-15h16-15h16p15---13-15h16p15-15h16p15--18-16p15p13--------------------------|
F#|---------------------------------------------------------16p15p13------------------|
C#|-----------------------------------------------------------------16p15p14----------|
G#|-------------------------------------------------------------------------16p14p12--|
C#|-----------------------------------------------------------------------------------|


[Chorus]

Guitar 1
d#|------------------------------------------------|
G#|------------------------------------------------|
F#|----5-5-5-5-/-12-12-12-12-\--8-8-8-8-8-8--------|
C#|----x-x-x-x----x--x--x--x----x-x-x-x-x-x--------|
G#|----3-3-3-3-/-10-10-10-10-\--6-6-6-6-6-6--------|
C#|------------------------------------------------|
Guitar 2
d#|------------------------------------------------|
G#|------------------------------------------------|
F#|----8-8-8-8----5-5-5-5--------------------------|
C#|----8-8-8-8----5-5-5-5----8-8-8-8-8-8-8-8---10--|
G#|----6-6-6-6----3-3-3-3----8-8-8-8-8-8-8-8---10--|
C#|--------------------------8-8-8-8-8-8-8-8---10--|
Guitar 1
d#|------------------------------------------------|
G#|------------------------------------------------|
F#|----5-5-5-5-/-12-12-12-12-\--8-8-8-8-8-8--------|
C#|----x-x-x-x----x--x--x--x----x-x-x-x-x-x--------|
G#|----3-3-3-3-/-10-10-10-10-\--6-6-6-6-6-6--------|
C#|------------------------------------------------|
Guitar 2
d#|------------------------------------------------|
G#|------------------------------------------------|
F#|----8-8-8-8----5-5-5-5--------------------------|
C#|----8-8-8-8----5-5-5-5----8-8-8-8-8-8-8-8-------|
G#|----6-6-6-6----3-3-3-3----8-8-8-8-8-8-8-8-------|
C#|--------------------------8-8-8-8-8-8-8-8-------|
Guitar 1
d#|---------------------------------------------------------------------------|
G#|---------------------------------------------------------------------------|
F#|---------------------------------------------------------------------------|
C#|---------------------------------------------------------------------------|
G#|---------------------------------------------------------------------------|
C#|---------------------------------------------------------------------------|
Guitar 2
d#|---------------------------------------------------------------------------|
G#|---------------------------------------------------------------------------|
F#|---------------------------------------------------------------------------|
C#|----6-6-6-6---8-8-8-8---5-5-5-5---10-10--8-8---5-5-5-5---6-6-6-6-----------|
G#|----6-6-6-6---8-8-8-8---5-5-5-5---10-10--8-8---5-5-5-5---6-6-6-6-----------|
C#|----6-6-6-6---8-8-8-8---5-5-5-5---10-10--8-8---5-5-5-5---6-6-6-6-----------|

Both guitars
d#|---------------------------------------------------|
G#|---------------------------------------------------|
F#|---------------------------------------------------|
C#|---------------------------------------------------|
G#|--3-3--3-3-6--3-3--3-3-6----------/6---------------|
C#|--------------------------6-6--6-6----5-5----------|
Both guitars
d#|---------------------------------------------------|
G#|---------------------------------------------------|
F#|---------------------------------------------------|
C#|---------------------------------------------------|
G#|--3-3--3-3-6--3-3--3-3-6---------------------------|
C#|--------------------------6----6-5----5/10---------|


************************************

| x  Dead note
| h  Hammer-on
| p  Pull-off
| /  Slide up
| \  Slide down

************************************

            
            
Suggest correction
Creating personal tab
Creating personal tab
You can edit any tab online and save it as your Personal.

You can edit, replace or remove any tab part or add personal notes – all changes will be seen only by you.

Personal tabs can be accessed anytime from any device, even offline.
Learn more »
comments
print report bad tab
6 comments total. Showing first comments.
0 reply
callumnewlands 77 Oct 02, 2015 11:49 AM

Does it really need to be in Drop C#? Wouldn't it work just in Drop D?

0 reply
garettbidd 1,106 Jul 05, 2016 08:40 PM

does anyone have the trumpet part for this?

0 reply
claytontalent1 10 Jan 03, 2017 05:35 PM, edited at 10:36 pm

The intro is actually this, and I play this in Drop D as well, it makes it easier than tuning to drop C# hahaBoth Guitarsd#|---------------------------------------------------|G#|---------------------------------------------------|F#|---------------------------------------------------|C#|---------------------------------------------------|G#|--3-3--3-3-6--3-3--3-3-6----------/6----------/2---|C#|--------------------------6-6--6-6----5-5--5-5-----|Start of Cody's singingd#|---------------------------------------------------|G#|---------------------------------------------------|F#|---------------------------------------------------|C#|---------------------------------------------------|G#|--3-3--3-3-6--3-3--3-3-6----------/6----------/2---|C#|--------------------------6-6--6-6----5-5--5-5-----|d#|-------------------------------------------|G#|-------------------------------------------|F#|-------------------------------------------|C#|-------------------------------------------|G#|--3-3--3-3-6--3-3--3-3-6----------/6-------|C#|--------------------------6-6--6-6----5-5--|d#|---------------------------------------------------|G#|---------------------------------------------------|F#|---------------------------------------------------|C#|---------------------------------------------------|G#|--3-3--3-3-6--3-3--3-3-6----------/6----------/2---|C#|--------------------------6-6--6-6----5-5--5-5-----|d#|---------------------------------------------------|G#|---------------------------------------------------|F#|---------------------------------------------------|C#|---------------------------------------------------|G#|--3-3--3-3-6--3-3--3-3-6----------/6----------/2---|C#|--------------------------6-6--6-6----5-5--5-5-----|

guest
You may want to rate the tab now too:
select rating
Wanna post a correction for this tab? Suggest correction