Oops, an error
Loading. Please wait.

Wolf In Sheeps Clothing Tab

version 3
version 3

Whole song

166 views 3 this week
no commentswrite comment
1 2 3 4 5
2 more votes to show rating
add to favorites
launch autoscroll
font size
0
reset
how to read this tab
guitar tuner
Autoscroll
slow
fast
+/-
esc
set tempo
stop
Help us to improve Ultimate-Guitar.com Take our survey!
×
Author
Difficulty
Tuning
intermediate
D A D G B E
About this tab version
Tabbed out in Drop-D to make it easier to play. Was this info helpful? Yes No
From what I can hear (from the album version) there is no guitar present in either the bridge 
nor the spoken part, but I tabbed the parts out just in case you wanted to play it (kinda uncertian if
the bridge is correct or not, feel free to correct it).

[Intro/Verse]

e|---------------------------------------------------------------------------|
B|---------------------------------------------------------------------------|  x5
G|---------------------------------------------------------------------------|
D|---------------------------------------------------------------------------|
A|----------------------------------------------------5-5--------------4-4---|
D|---9-9--9-9-9-12-12---9-9--9-9-9-12-12---5-5--5-5-5-------4-4--4-4-4-------|


[Pre-Chorus]

e|-----------------------------------------------------------|
B|-----------------------------------------------------------|
G|-----------------------------------------------------------|
D|-----------------------------------------------------------|
A|-----------------------------------------------------------|
D|---5-5-5-5-5-5-5-5-5-5-5-5-7-7-7-7-7-7-7-7-7-7-7-7---------|


[Chorus A]

e|-------------------------------------|
B|-------------------------------------|  x2
G|-------------------------------------|
D|-5-5-5-5---9-9-9-9---7-7-7-7-7-7-7-7-|
A|-5-5-5-5---9-9-9-9---7-7-7-7-7-7-7-7-|
D|-5-5-5-5---9-9-9-9---7-7-7-7-7-7-7-7-|

e|---------------------------------------------------|
B|---------------------------------------------------|
G|---------------------------------------------------|
D|-5-5-5-5---7-7-7-7---4-4-4-4---9-9-7-7---5-5-5-5-4-|
A|-5-5-5-5---7-7-7-7---4-4-4-4---9-9-7-7---5-5-5-5-4-|
D|-5-5-5-5---7-7-7-7---4-4-4-4---9-9-7-7---5-5-5-5-4-|


[Chorus B]

e|-------------------------------------|
B|-------------------------------------|  x2
G|-------------------------------------|
D|-5-5-5-5---9-9-9-9---7-7-7-7-7-7-7-7-|
A|-5-5-5-5---9-9-9-9---7-7-7-7-7-7-7-7-|
D|-5-5-5-5---9-9-9-9---7-7-7-7-7-7-7-7-|

e|---------------------------------------------------------|
B|---------------------------------------------------------|
G|---------------------------------------------------------|
D|-5-5-5-5---7-7-7-7---4-4-4-4---9-9-7-7---5-5-5-5-4-4-4-4-|
A|-5-5-5-5---7-7-7-7---4-4-4-4---9-9-7-7---5-5-5-5-4-4-4-4-|
D|-5-5-5-5---7-7-7-7---4-4-4-4---9-9-7-7---5-5-5-5-4-4-4-4-|


[Bridge]

e|---------------------------------------------------------------------------|
B|---------------------------------------------------------------------------|
G|-7-7-7-7-7-7-7-7--9-9-9-9-9-9-9-9--12-12-12-12--11-11-11-11--9-9-9-9-------|
D|-7-7-7-7-7-7-7-7--9-9-9-9-9-9-9-9--12-12-12-12--11-11-11-11--9-9-9-9-------|
A|-5-5-5-5-5-5-5-5--7-7-7-7-7-7-7-7--10-10-10-10--9--9--9--9---7-7-7-7-------|
D|---------------------------------------------------------------------------|

e|-------------------------------------------------------------------|
B|-------------------------------------------------------------------|
G|-7-7-7-7-7-7-7-7--14-14-14-14-14-14-14-14--11-11-11-11-11-11-11-11-|
D|-7-7-7-7-7-7-7-7--14-14-14-14-14-14-14-14--11-11-11-11-11-11-11-11-|
A|-5-5-5-5-5-5-5-5--12-12-12-12-12-12-12-12--10-10-10-10-10-10-10-10-|
D|-------------------------------------------------------------------|

e|----------------------|
B|----------------------|
G|-10-10-10-10--9-9-9-9-|
D|-10-10-10-10--9-9-9-9-|
A|-9--9--9--9---7-7-7-7-|
D|----------------------|


[Spoken]

e|--------------------------------------------------------------|
B|--------------------------------------------------------------|
G|--------------------------------------------------------------|
D|--------------------------------------------------------------|
A|--------------------------------------------------------------|
D|-9----------8-8-9----------8-8-9-----8-8-9-----8-8-9----------|


[Solo]

e|--------------------------------------------------------------------------|
B|--------------------------------------------------------------------------|
G|--------------------------------------------------------------------------|
D|--------------------------------------------------------------------------|
A|--------------------------------------------------------------------------|
D|--9-9-9-9-9-9-12-12--9-9-9-9-9-9-12-12--5-5-5-5-5-5-9-9--4-4-4-4-4-4-8-8--|

e|---------------------------------------------------------|
B|---------------------------------------------------------|
G|---------------------------------------------------------|
D|---------------------------------------------------------|
A|---------------------------------------------------------|
D|--9-9-9-9-9-9-12-12--9-9-9-9-9-9-12-12--5-5-5-5-5-5-9-9--|

e|--------------------------------------|
B|--------------------------------------|
G|--------------------------------------|
D|--------------------------------------|
A|--------------------------------------|
D|--4-4-4-8--4-4-4-8--4-4-4-8--4-4-4-8--|


[Outro]

e|---------------------------------------------------------------------------|
B|---------------------------------------------------------------------------|
G|---------------------------------------------------------------------------|
D|---------------------------------------------------------------------------|
A|----------------------------------------------------5-5--------------4-4---|
D|---9-9--9-9-9-12-12---9-9--9-9-9-12-12---5-5--5-5-5-------4-4--4-4-4-------|

e|---------------------------------------------------------------------------|
B|---------------------------------------------------------------------------|
G|---------------------------------------------------------------------------|
D|---------------------------------------------------------------------------|
A|---------------------------------------------------------------------------|
D|---9-9--9-9-9-12-12---9-9--9-9-9-12-12---5----5-5-4--4-4-9-----------------|
Suggest correction
Give kudos to tab author, rate the tab!
1 2 3 4 5
comments
print report bad tab
guest
You may want to rate the tab now too:
select rating
Wanna post a correction for this tab? Suggest correction