Oops, an error
Loading. Please wait.

The Ride tab

34 views 1 this week
no commentswrite comment
1 2 3 4 5
3 more votes to show rating
add to favorites
×
Save as Personal and add changes to this tab that will be seen only by you. Learn more ›
×
You can save this tab as Personal to edit and correct it or add notes. All changes will be seen only by you. Learn more »
launch autoscroll
font size
0
reset
how to read this tab
guitar tuner
edit
Autoscroll
slow
fast
+/-
esc
set tempo
stop
Author
Difficulty
The Ride by Set Loose

A Major. Once you get the main sections you can piece the strumming and timing together by hearing the song. 

[Intro & Verses]
Main Riff throughout the song (Guitar 1)
e|-------------------------------------------------------------------------------------0-----------5-----|
B|----------5-----------5-----------5-----------5-----------5-----------5-----------5-----5-----5--------|
G|-------6-----6-----6-----6-----6-----6-----6-----6-----6-----6-----6-----6-----6-----------6-----------|
D|----7-----------7-----------6-----------6-----------4-----------4-----------0--------------------------|
A|-------------------------------------------------------------------------------------------------------|
E|-------------------------------------------------------------------------------------------------------|

(Guitar 2)

e|-------------------------------------------------------------------------------------------------------|
B|----5------5-----5---5------5------5--x-x-5--5------5------5-----5---5------5------5-----5---5--5------|
G|----6------6-----6---6------6------6--x-x-6--6------6------6-----6---6------6------6-----6---6--6------|
D|----7------7-----7---7------6------6--x-x-6--6------4------4-----4---4------0------0-----0---0--0------|
A|-------------------------------------------------------------------------------------------------------|
E|-------------------------------------------------------------------------------------------------------|

[Verse 2]
(Guitars- palm muted intro chords)

(Mid-Song Build Up and Dance Break Section)

e|---------------------------------------------------------------------------------------------------------|
B|----5---5--5--5---5--5--7---7--7--7---7--7---9---9---9---9---9---9-------------------10--10--10--10--10--|
G|----6---6--6--6---6--6--7---7--7--7---7--7---9---9---9---9---9---9---11--11--11--11--11--11--11--11--11--|
D|----7---7--7--7---7--7--9---9--9--9---9--9---11--11--11--11--11--11--12--12--12--12--12--12--12--12--12--|
A|----x---x--x--x---x--x--x---x--x--x---x--x---x---x---x---x---x---x---x---x---x---x---x---x---x---x---x---|
E|----5---5--5--5---5--5--7---7--7--7---7--7---9---9---9---9---9---9---10--10--10--10--10--10--10--10--10--|

(Alternate finger pressure on chords when strumming for the correct sound)

e|-----------------------------------------------------------------------------------------------------------|
B|----9--9-9---7--7--7--7-7-7---9--9-9---7--7--7--7-7-7---9--9-9---7--7--7--7-7-7---9--9-9---7--7--7--7-7-7--|
G|----8--8-8---6--6--6--6-6-6---8--8-8---6--6--6--6-6-6---8--8-8---6--6--6--6-6-6---8--8-8---6--6--6--6-6-6--|
D|----9--9-9---7--7--7--7-7-7---9--9-9---7--7--7--7-7-7---9--9-9---7--7--7--7-7-7---9--9-9---7--7--7--7-7-7--|
A|----7--7-7---5--5--5--5-5-5---7--7-7---5--5--5--5-5-5---7--7-7---5--5--5--5-5-5---7--7-7---5--5--5--5-5-5--|
E|-0--0--0-0---0--0--0--0-0-0---0--0-0---0--0--0--0-0-0---0--0-0---0--0--0--0-0-0---0--0-0---0--0--0--0-0-0--|


e|---------------------------------------------|          e---------------------------------------|
B|----5--5--5-5-5-5---7--7--7-7-7-7------------|          B-----9------------9--------------------|
G|----4--4--4-4-4-4---6--6--6-6-6-6------------|  (x2)    G-----8--------8------------------------|
D|----5--5--5-5-5-5---7--7--7-7-7-7------------|          D-----9-----9---------------------------|
A|----3--3--3-3-3-3---5--5--5-5-5-5------------|          A-----7---------------------------------|
E|-0--0--0--0-0-0-0---0--0--0-0-0-0------------|          E-----0---------------------------------|


[Verse 3]
(Palm muted guitar intro chords & single chord strums)
 
[Solo]
e|----------------------------------------------------------------------------------------------12------|
B|---------------------------------------------------------------------7--9/14--14--15--14--12----------|
G|-----6--7--6-----------------6-----6--7--6-----9------------6--7--9-------------------------------14--|
D|--------------9--7-----7h9------7-----------9-----7----7h9--------------------------------------------|
A|------------------------------------------------------------------------------------------------------|
E|------------------------------------------------------------------------------------------------------|


e|---------------------------------------------12--------------------------------------12--14/21--21----|
B|------------12-----------14--14--15--14--12------12h14p12----------------12--14--15-------------------|
G|-----13h14------14-----------------------------------------14-----13h14-------------------------------|
D|------------------------------------------------------------------------------------------------------|
A|------------------------------------------------------------------------------------------------------|
E|------------------------------------------------------------------------------------------------------|


e|-----22--21--19--19--21--19--17--16--14--12--12h14p12-------------------------------------------------|
B|-------------------------------------------------------14--12h14p12-----------------12----------------|
G|---------------------------------------------------------------------14------13h14---------14---------|
D|------------------------------------------------------------------------------------------------------|
A|------------------------------------------------------------------------------------------------------|
E|------------------------------------------------------------------------------------------------------|

[Outro]
e|------------------------------------------------------------------------------------------------------|
B|------------------------------------------------------------------------------------------------------|
G|------------------------------------------------------------------------------------------------------|
D|-------------11h12--11------------14--12--11-----------12----11--14--11---12--11----------------------|
A|-----14--12---------------14--12--------------14--12------------------------------14--12--------------|
E|------------------------------------------------------------------------------------------------------|



************************************

| x  Dead note
| /  Slide up
| h  Hammer-on
| p  Pull-off
 

************************************
Suggest correction
Creating personal tab
Creating personal tab
You can edit any tab online and save it as your Personal.

You can edit, replace or remove any tab part or add personal notes – all changes will be seen only by you.

Personal tabs can be accessed anytime from any device, even offline.
Learn more »
Give kudos to tab author, rate the tab!
1 2 3 4 5
comments
print report bad tab
guest
You may want to rate the tab now too:
select rating
Wanna post a correction for this tab? Suggest correction