Oops, an error
Loading. Please wait.

Mutiny intro tab

version 1
version 1

Intro

5,709 views 1 this week
no commentswrite comment
1 2 3 4 5
2 more votes to show rating
add to favorites
×
Save as Personal and add changes to this tab that will be seen only by you. Learn more ›
×
You can save this tab as Personal to edit and correct it or add notes. All changes will be seen only by you. Learn more »
launch autoscroll
font size
0
reset
how to read this tab
guitar tuner
edit
Autoscroll
slow
fast
+/-
esc
set tempo
stop
Difficulty
intermediate
everyone elses tabs were ridiculously wrong for this song/intro, so here it is. Tune 
a step down, that's E flat. (p)= palm mute.

GUITAR ONE AND TWO

bar one
eb-----------------------------------------------------------------|
Bb-----------------------------------------------------------------|
Gb---------------444-----------------------------------------------|
Db---------------xxx--2-2-9-9-11-11-7~--7-9~7-7-9-9-9-9-2~2222-7-9-|
Ab---------------222--2-2-9-9-11-11-7~--7-9~7-7-9-9-9-9-2~2222-7-9-|
Eb-0~0h7p0h9p0h5-xxx--0-0-7-0-9--0--5~--5-7~5-5-7-0-7-0-0~0000-5-7-|
                                       (p)                    (p)

                                            /G ONE/G TWO
bar two                                     /plays/plays
eb------------------------------------------/-----/-----|
Bb------------------------------------------/-----/-----|
Gb------------------------------------------/-----/-444-|
Db-2-2-9-9-11-11-7~--7-9~7-7-9-9-9-9-2~2222-/-7-9-/-xxx-|
Ab-2-2-9-9-11-11-7~--7-9~7-7-9-9-9-9-2~2222-/-7-9-/-222-|
Eb-0-0-7-0-9--0--5~--5-7~5-5-7-0-7-0-0~0000-/-5-7-/-----|
                    (p)                      (p)

GUITAR ONE

bar three
eb----------------------------------------------|
Bb----------------------------------------------|
Gb----------------------------------------------|
Db-2-2-9-9-11-11-7~--7-9~7-7-9-9-9-9-2~2222-7-9-|
Ab-2-2-9-9-11-11-7~--7-9~7-7-9-9-9-9-2~2222-7-9-|
Eb-0-0-7-0-9--0--5~--5-7~5-5-7-0-7-0-0~0000-5-7-|
                    (p)

bar four
eb-----------------------------------------------------|
Bb-----------------------------------------------------|
Gb-----------------------------------------------------|
Db-2-2-9-9-11-11-7~--7-9~7-7-9-9-9-9-2~2222-7-9~-2~~~~-|
Ab-2-2-9-9-11-11-7~--7-9~7-7-9-9-9-9-2~2222-7-9~-2~~~~-|
Eb-0-0-7-0-9--0--5~--5-7~5-5-7-0-7-0-0~0000-5-7~-0~~~~-|
                    (p)                    (p)

GUITAR TWO (starts on bar three)

bar three
eb-------------------------------------------------------------|
Bb-------------------------------------------------------------|
Gb-------------------------------------------------------------|
Db-0-0-2p0-4p0-2p0-5p0-4p0-2h4~~-0-0-2p0-4p0-2p0-5p0-4p0-2h0~~-|
Ab-------------------------------------------------------------|
Eb-------------------------------------------------------------|

bar four
eb-------------------------------------------------------------|
Bb-------------------------------------------------------------|
Gb-------------------------------------------------------------|
Db-0-0-2p0-4p0-2p0-5p0-4p0-2h4~~-4~p0-4h5-4p0-0~~~~~~~~~~~~~~~-|
Ab-------------------------------------------------------------|
Eb-------------------------------------------------------------|

(This is a full blown assault! A cannon blast, to mark your fall)

i'm too lazy to tab the rest of the song, but it's not very hard to figure the verse 
you've got these chords down!

have fun.

            
            
Suggest correction
Creating personal tab
Creating personal tab
You can edit any tab online and save it as your Personal.

You can edit, replace or remove any tab part or add personal notes – all changes will be seen only by you.

Personal tabs can be accessed anytime from any device, even offline.
Learn more »
Give kudos to tab author, rate the tab!
1 2 3 4 5
comments
print report bad tab
guest
Wanna post a correction for this tab? Suggest correction