Oops, an error
Loading. Please wait.

The Few That Remain Tab

version 1
version 1

Intro

Whole song

Interactive

17,464 views 15 this week
4 commentsread comments
1 2 3 4 5
excellent!
x 10
add to favorites
launch autoscroll
font size
0
reset
how to read this tab
guitar tuner
Tab Pro tools
  • play this tab
  • loop segment
  • change instrument
  • show fretboard
  • metronome
Autoscroll
slow
fast
+/-
esc
set tempo
stop
Contributor
Difficulty
Tuning
intermediate
C# G# C# F# A# D#
-------------------------------------------------------------------------------
                             THE FEW THAT REMAIN – Set Your Goals
-------------------------------------------------------------------------------
Tabbed by: rockett97    
Email: rockett97@hotmail.com


Ok so, I figured I'd tab this song next, because I couldn't find a decent one myself. 
I don't know if this is exactly how SYG plays it, but it sounds exactly the same, 
so I figure this is the way they play it too. 
I only tabbed out the rhythm part, because the lead wasn't very clear to me, 
for I couldn't hear all of the lead parts. So here it is, have fun with it!

Oh, and please RATE and COMMENT!

Tuning: Drop C#

Intro

d#|--------------------------------------------------------------------|
A#|--------------------------------------------------------------------|
F#|-4-6-6-6-9-9-6-6-4-4-9-9------------6-6-6-9-9-6-6-----9-9-----------|
C#|-4-6-6-6-9-9-6-6-4-4-9-9-7-9-9-9-9--6-6-6-9-9-6-6-7-7-9-9-7-9-9-9-9-|
G#|-2-4-4-4-7-7-4-4-2-2-7-7-7-9-9-9-9--4-4-4-7-7-4-4-7-7-7-7-7-9-9-9-9-|
C#|-------------------------7-9-9-9-9----------------7-7-----7-9-9-9-9-|
      x x x x x x x x x x x x x x x x  x x x x x x x x x x x x x x x


d#|--------------------------------------------------------------|
A#|--------------------------------------------------------------|
F#|-6-6-6-9-9-6-6-4-4-9-9------------6-6-6-9-9-6-6-----9-9-------|
C#|-6-6-6-9-9-6-6-4-4-9-9-7-9-9-9-9--6-6-6-9-9-6-6-7-7-9-9-7-9-9-|
G#|-4-4-4-7-7-4-4-2-2-7-7-7-9-9-9-9--4-4-4-7-7-4-4-7-7-7-7-7-9-9-|
C#|-----------------------7-9-9-9-9----------------7-7-----7-9-9-|
          x x x x x x x x x x x x x  

d#|------------------------------------------------------------------------|
A#|------------------------------------------------------------------------|
F#|-444-4-6-6-6-9-9-6-6-4-4-9-9------------6-6-6-9-9-6-6-----9-9-----------|
C#|-444-4-6-6-6-9-9-6-6-4-4-9-9-7-9-9-9-9--6-6-6-9-9-6-6-7-7-9-9-7-9-9-9-9-|
G#|-222-2-4-4-4-7-7-4-4-2-2-7-7-7-9-9-9-9--4-4-4-7-7-4-4-7-7-7-7-7-9-9-9-9-|
C#|-----------------------------7-9-9-9-9----------------7-7-----7-9-9-9-9-|
      

d#|------------------------------------------------------------------|
A#|------------------------------------------------------------------|
F#|-6-6-6-9-9-6-6-4-4-9-9------------6-6-6-9-9-6-6-----9-9-----------|
C#|-6-6-6-9-9-6-6-4-4-9-9-7-9-9-9-9--6-6-6-9-9-6-6-7-7-9-9-7-9-9-9-9-|
G#|-4-4-4-7-7-4-4-2-2-7-7-7-9-9-9-9--4-4-4-7-7-4-4-7-7-7-7-7-9-9-9-9-|
C#|-----------------------7-9-9-9-9----------------7-7-----7-9-9-9-9-|
                                                           x x x x x

Verse 

('Come on and break down')

d#|------------------------------------------------------------------|
A#|------------------------------------------------------------------|
F#|-6-6-6-9-9-6-6-4-4-9-9------------6-6-6-9-9-6-6-----9-9-----------|
C#|-6-6-6-9-9-6-6-4-4-9-9-7-9-9-9-9--6-6-6-9-9-6-6-7-7-9-9-7-9-9-9-9-|
G#|-4-4-4-7-7-4-4-2-2-7-7-7-9-9-9-9--4-4-4-7-7-4-4-7-7-7-7-7-9-9-9-9-|
C#|-----------------------7-9-9-9-9----------------7-7-----7-9-9-9-9-|
    x x x x x x x x x x x x x x x x  x x x x x x x x x x x x x x x


d#|------------------------------------------------------------------|
A#|------------------------------------------------------------------|
F#|-6-6-6-9-9-6-6-4-4-9-9------------6-6-6-9-9-6-6-----9-9-----------|
C#|-6-6-6-9-9-6-6-4-4-9-9-7-9-9-9-9--6-6-6-9-9-6-6-7-7-9-9-7-9-9-9-9-|
G#|-4-4-4-7-7-4-4-2-2-7-7-7-9-9-9-9--4-4-4-7-7-4-4-7-7-7-7-7-9-9-9-9-|
C#|-----------------------7-9-9-9-9----------------7-7-----7-9-9-9-9-|
    x x x x x x x x x x x x x x x x  x x x x x x x x x x x 


d#|------------------------------------------------------------------|
A#|------------------------------------------------------------------|
F#|-6-6-6-9-9-6-6-4-4-9-9------------6-6-6-9-9-6-6-----9-9-----------|
C#|-6-6-6-9-9-6-6-4-4-9-9-7-9-9-9-9--6-6-6-9-9-6-6-7-7-9-9-7-9-9-9-9-|
G#|-4-4-4-7-7-4-4-2-2-7-7-7-9-9-9-9--4-4-4-7-7-4-4-7-7-7-7-7-9-9-9-9-|
C#|-----------------------7-9-9-9-9----------------7-7-----7-9-9-9-9-|
    
(Verse x2)

Chorus

'we are the spark'

d#|-------------------------------------------------------------------------|
A#|-------------------------------------------------------------------------|
F#|-6-XXXX-6--6-6-6-8-XXXX-9--9-9-9-----------------11-11-11-11-11-11-11-11-|
C#|-6-XXXX-6--6-6-6-8-XXXX-9--9-9-9-9-9-9-9-9-9-9-9-11-11—11-11-11-11-11-11-|
G#|-4-XXXX-4--4-4-4-6-XXXX-7--7-7-7-9-9-9-9-9-9-9-9-9--9--9--9--9--9--9--9--|
C#|---------------------------------9-9-9-9-9-9-9-9-------------------------|

d#|-----------------------------------------------------------------|
A#|-----------------------------------------------------------------|
F#|-6-XXXX-6--6-6-6-8-XXXX-9--9-9-9---------------------------------|
C#|-6-XXXX-6--6-6-6-8-XXXX-9--9-9-9-9-9-9-9-9-9-9-9-7-7-7-7-7-7-7-7-|
G#|-4-XXXX-4--4-4-4-6-XXXX-7--7-7-7-9-9-9-9-9-9-9-9-7-7-7-7-7-7-7-7-|
C#|---------------------------------9-9-9-9-9-9-9-9-7-7-7-7-7-7-7-7-|


d#|----------------|
A#|----------------|
F#|----------------|
C#|-11\--9--9--11\-|
G#|-11\--9--9--11\-|
C#|-11\--9--9--11\-|

Verse 2

d#|---------------------------------------------------------------------|
A#|---------------------------------------------------------------------|
F#|-4-------------------------------------------------------------------|
C#|-4--------2-2---------2-2------------------2-2---------2-2-----------|
G#|-2--4-4-4-----4-4-2-2-----0-2-2-2-2--4-4-4-----4-4-0-0-----0-2-2-2-2-|
C#|---------------------------------------------------------------------|

d#|------------------------------------------------------------------|
A#|------------------------------------------------------------------|
F#|----------------------------------------------------------4-4-4-4-|
C#|-------2-2---------2-2------------------2-2---------2-2---4-4-4-4-|
G#|-4-4-4-----4-4-2-2-----0-2-2-2-2--4-4-4-----4-4-0-0-----0-2-2-2-2-|
C#|------------------------------------------------------------------|

Bridge
(Hayley Williams comes in}

'Whoa! I see you ready, set, go!'


d#|-----------------------------------------------------------------------|
A#|-----------------------------------------------------------------------|
F#|-X-X-6-6-6-6---6-6-6---6-6-6-6\4-4-4---6-6-6-6---6-6-6---6-6-6-6\4-4-4-|
C#|-X-X-6-6-6-6---6-6-6---6-6-6-6\4-4-4---6-6-6-6---6-6-6---6-6-6-6\4-4-4-|
G#|-X-X-4-4-4-4---4-4-4---4-4-4-4\2-2-2---6-4-4-4---4-4-4---4-4-4-4\2-2-2-|
C#|-----------------------------------------------------------------------|
          x x x     x x     x x           x x x x   x x x   x x x 

d#|-----------------------------------------------------------------------|
A#|-----------------------------------------------------------------------|
F#|-X-X-6-6-6-6---6-6-6---6-6-6-6\4-4-4---6-6-6-6---6-6-6---6-6-6-6\4-4-4-|
C#|-X-X-6-6-6-6---6-6-6---6-6-6-6\4-4-4---6-6-6-6---6-6-6---6-6-6-6\4-4-4-|
G#|-X-X-4-4-4-4---4-4-4---4-4-4-4\2-2-2---6-4-4-4---4-4-4---4-4-4-4\2-2-2-|
C#|-----------------------------------------------------------------------|
          x x x     x x     x x           x x x x   x x x   x x  

d#|-----------------------------------------------------------------|
A#|-----------------------------------------------------------------|
F#|---------------------------------6-6-6-9-9-6-6-----9-9-----------|
C#|-------2-2---------2-2-----------6-6-4-9-9-6-6-9-9-9-9-7-9-9-9-9-|
G#|-4-4-4-----4-4-2-2-----0-2-2-2-2-4-4-4-7-7-4-4-9-9-7-7-7-9-9-9-9-|
C#|-----------------------------------------------9-9-----7-9-9-9-9-|
                                    x x x x x x x x x x x x

'We are the spark'

d#|-------------------------------------------------------------------------|
A#|-------------------------------------------------------------------------|
F#|-6-XXXX-6--6-6-6-8-XXXX-9--9-9-9-----------------11-11-11-11-11-11-11-11-|
C#|-6-XXXX-6--6-6-6-8-XXXX-9--9-9-9-9-9-9-9-9-9-9-9-11-11—11-11-11-11-11-11-|
G#|-4-XXXX-4--4-4-4-6-XXXX-7--7-7-7-9-9-9-9-9-9-9-9-9--9--9--9--9--9--9--9--|
C#|---------------------------------9-9-9-9-9-9-9-9-------------------------|

d#|-----------------------------------------------------------------|
A#|-----------------------------------------------------------------|
F#|-6-XXXX-6--6-6-6-8-XXXX-9--9-9-9---------------------------------|
C#|-6-XXXX-6--6-6-6-8-XXXX-9--9-9-9-9-9-9-9-9-9-9-9-7-7-7-7-7-7-7-7-| (x2)
G#|-4-XXXX-4--4-4-4-6-XXXX-7--7-7-7-9-9-9-9-9-9-9-9-7-7-7-7-7-7-7-7-|
C#|---------------------------------9-9-9-9-9-9-9-9-7-7-7-7-7-7-7-7-|

'Go settle up, with the kids fed up'

d#|-------------------------------------------------------------------|
A#|-------------------------------------------------------------------|
F#|-9-9-9-9-9-9-9-9-9-9-9-9-9-9-9-9-9---------------------------------|
C#|-9-9-9-9-9-9-9-9-9-9-9-9-9-9-9-9-9-9-9-9-9-9-9-9-9-9-9-9-9-9-9-9-9-|
G#|-7-7-7-7-7-7-7-7-7-7-7-7-7-7-7-7-7-9-9-9-9-9-9-9-9-9-9-9-9-9-9-9-9-|
C#|-----------------------------------9-9-9-9-9-9-9-9-9-9-9-9-9-9-9-9-|

d#|-------------------------------|
A#|-------------------------------|
F#|-6--666--6-6-6-----------------|
C#|-6--666--6-6-6--7--777-7-7-7-7-|
G#|-4--444--4-4-4--7--777-7-7-7-7-|
C#|----------------7--777-7-7-7-7-|
       xxx            xxx   

d#|-------------------------------------------------------------------|
A#|-------------------------------------------------------------------|
F#|-9-9-9-9-9-9-9-9-9-9-9-9-9-9-9-9-9---------------------------------|
C#|-9-9-9-9-9-9-9-9-9-9-9-9-9-9-9-9-9-9-9-9-9-9-9-9-9-9-9-9-9-9-9-9-9-|
G#|-7-7-7-7-7-7-7-7-7-7-7-7-7-7-7-7-7-9-9-9-9-9-9-9-9-9-9-9-9-9-9-9-9-|
C#|-----------------------------------9-9-9-9-9-9-9-9-9-9-9-9-9-9-9-9-|


d#|---------------------------------|
A#|---------------------------------|
F#|---------------------------------|
C#|-44444-44-7-2-22-4-44-7-2-----7+-|
G#|-44444-44-7-2-22-4-44-7-2--7+----|
C#|-44444-44-7-2-22-4-44-7-2--------|
    xxxxx xx x x xx x xx x x


d#|-----------------------------------|
A#|-----------------------------------|
F#|-----------------------------------|
C#|-44444-44-7-2-22-4-44-7-2--2-2-2-2-|
G#|-44444-44-7-2-22-4-44-7-2--2-2-2-2-|
C#|-44444-44-7-2-22-4-44-7-2--2-2-2-2-|
    xxxxx xx x x xx x xx x x  x x x x


'Just why?!'

d#|------------------------------------------------------------------|
A#|------------------------------------------------------------------|
F#|-6-6-6-9-9-6-6-4-4-9-9------------6-6-6-9-9-6-6-----9-9-----------|
C#|-6-6-6-9-9-6-6-4-4-9-9-7-9-9-9-9--6-6-6-9-9-6-6-7-7-9-9-7-9-9-9-9-|
G#|-4-4-4-7-7-4-4-2-2-7-7-7-9-9-9-9--4-4-4-7-7-4-4-7-7-7-7-7-9-9-9-9-|
C#|-----------------------7-9-9-9-9----------------7-7-----7-9-9-9-9-|

d#|------------------------------------------------------------------|
A#|------------------------------------------------------------------|
F#|-6-6-6-9-9-6-6-4-4-9-9------------6-6-6-9-9-6-6-----9-9-----------|
C#|-6-6-6-9-9-6-6-4-4-9-9-7-9-9-9-9--6-6-6-9-9-6-6-7-7-9-9-7-9-9-9-9-|
G#|-4-4-4-7-7-4-4-2-2-7-7-7-9-9-9-9--4-4-4-7-7-4-4-7-7-7-7-7-9-9-9-9-|
C#|-----------------------7-9-9-9-9----------------7-7-----7-9-9-9-9-|
                                                                   x
    
'Come on and break down'

d#|------------------------------------------------------------------|
A#|------------------------------------------------------------------|
F#|-6-6-6-9-9-6-6-4-4-9-9------------6-6-6-9-9-6-6-----9-9-----------|
C#|-6-6-6-9-9-6-6-4-4-9-9-7-9-9-9-9--6-6-6-9-9-6-6-7-7-9-9-7-9-9-9-9-|
G#|-4-4-4-7-7-4-4-2-2-7-7-7-9-9-9-9--4-4-4-7-7-4-4-7-7-7-7-7-9-9-9-9-|
C#|-----------------------7-9-9-9-9----------------7-7-----7-9-9-9-9-|
    x x x x x x x x x x x x x x x x  x x x x x x x x x x x x x x x   
                                                                   

d#|---------------------------------------------------------------|
A#|---------------------------------------------------------------|
F#|-6-6-6-9-9-6-6-4-4-9-9------------6-6-6-9-9-6-6-----9-9--------|
C#|-6-6-6-9-9-6-6-4-4-9-9-7-9-9-9-9--6-6-6-9-9-6-6-7-7-9-9-7-9-9--|
G#|-4-4-4-7-7-4-4-2-2-7-7-7-9-9-9-9--4-4-4-7-7-4-4-7-7-7-7-7-9-9--|
C#|-----------------------7-9-9-9-9----------------7-7-----7-9-9--|
          x x x x x x x x x x x x x  

d#|------------------------------------------------------------------------|
A#|------------------------------------------------------------------------|
F#|-444-4-6-6-6-9-9-6-6-4-4-9-9------------6-6-6-9-9-6-6-----9-9-----------|
C#|-444-4-6-6-6-9-9-6-6-4-4-9-9-7-9-9-9-9--6-6-6-9-9-6-6-7-7-9-9-7-9-9-9-9-|
G#|-222-2-4-4-4-7-7-4-4-2-2-7-7-7-9-9-9-9--4-4-4-7-7-4-4-7-7-7-7-7-9-9-9-9-|
C#|-----------------------------7-9-9-9-9----------------7-7-----7-9-9-9-9-|
      

d#|--------------------------------------------------------------|
A#|--------------------------------------------------------------|
F#|-6-6-6-9-9-6-6-4-4-9-9------------6-6-6-9-9-6-6-----9-9-------|
C#|-6-6-6-9-9-6-6-4-4-9-9-7-9-9-9-9--6-6-6-9-9-6-4-7-7-9-9-7-9-9-|
G#|-4-4-4-7-7-4-4-2-2-7-7-7-9-9-9-9--4-4-4-7-7-4-4-7-7-7-7-7-9-9-|
C#|-----------------------7-9-9-9-9----------------7-7-----7-9-9-|
                                     x x x 

(NOTE: These last few chords might not be totally correct, 
they're almost spot on, but couldn't hear it good enough)
                                                                   
           
 \   slide down
 +   harmonic
 x   Palm-mute note
 X   Mute note (while strumming)

Please don't forget to RATE and COMMENT!
Thanks guys.
************************************

comments
print report bad tab
4 comments total. Showing first comments.
0 reply
Sparticus55667 wrote on February 22 2010, 05:24 pm

MORE!!!!!!!!

0 reply
cobra_disco wrote on May 24 2010, 11:30 pm

its half step down, not drop c#

0 reply
rockett97 wrote on May 25 2010, 04:32 pm

@ cobra_disco:
I like to play it in Drop C# rather than in just a half step down. That way i can play the powerchords on the lower three strings better (cause i'm used to playing in drop D/Drop C#).
It could be SYG plays it in half step down, but this is just the way i find it better (sounds better imo.)

But anyways if you want to play it in half step down, just do what you like! Only the 'number' on the lowe C# string changes, the rest of the tab stays the same (but i'm sure you're aware of that)

I want to post or [tab]
guest
You may want to rate the tab now too:
select rating
Please do not post tabs as comments. Select "correction" instead!