Oops, an error
Loading. Please wait.

The Star-Spangled Banner tab

40 views 1 this week
no commentswrite comment
1 2 3 4 5
3 more votes to show rating
add to favorites
×
Save as Personal and add changes to this tab that will be seen only by you. Learn more ›
×
You can save this tab as Personal to edit and correct it or add notes. All changes will be seen only by you. Learn more »
launch autoscroll
font size
0
reset
how to read this tab
guitar tuner
edit
Autoscroll
slow
fast
+/-
esc
set tempo
stop
About this tab version
Here is my first attempt at this amazing version of the US National anthem. Finger tap section could use some help. Was this info helpful? Yes No
[Intro]
e|----7--4--0--4--7--12~-----14b--14b--12---------------------------------|
B|----------------------------------------12/9--11-12---12h14p12p11--12~--|
G|------------------------------------------------------------------------|
D|------------------------------------------------------------------------|       
A|------------------------------------------------------------------------|
E|------------------------------------------------------------------------|

e|---------14b-14b--12-11--9--11--11h12--12----7/4---0------|
B|--12-12---------------------------------------------------|
G|----------------------------------------------------------|
D|----------------------------------------------------------|       
A|----------------------------------------------------------|
E|----------------------------------------------------------|  (Repeat this entire section twice)
 
[Verse]
e|---16-16-16--17--19-17b~--17-16-14--16-17-15b---16b-16-14-14/12-11~--9-11-12-----9-11~-|
B|-----------------------------------------------------------------------------9--11-12~-|
G|---------------------------------------------------------------------------------------|
D|---------------------------------------------------------------------------------------|       
A|---------------------------------------------------------------------------------------|
E|---------------------------------------------------------------------------------------|

e|-----12--12--12-11--9--9--9------------12h14h16p14-14-14b-14b--12-12--14p12-11~-|
B|--12-12--12--12-12-12-12-10----12h14h16-----------------------------------------|
G|--------------------------------------------------------------------------------|
D|--------------------------------------------------------------------------------|       
A|--------------------------------------------------------------------------------|
E|--------------------------------------------------------------------------------|

e|--------12tr-14tr-16tr-17tr-19tr~--|
B|--12-12----------------------------|
G|-----------------------------------|
D|-----------------------------------|       
A|-----------------------------------|
E|-----------------------------------|

e|--12---14p12---19p12h16---19h14h17--19h11p14-----19h12p14----|
B|---------------------x8---------x8---------x4or5--------x*---|
G|-------------------------------------------------------------|
D|-------------------------------------------------------------|       
A|-------------------------------------------------------------|
E|-------------------------------------------------------------|

(play this till however long you want, Seth does alternate the first fret being 19,18,17,16, he keeps the two
pull offs the same but goes up and down between the first four fret options.)

[Outro]
e|---0~--0~--0~---0~--0~--0~---|
B|---0~--0~--0~---0~--0~--0~---|
G|---1~--3~--4~---3~--2~--1~---|
D|---2~--4~--5~---4~--3~--2~---|       
A|---2~--4~--5~---4~--3~--2~---|
E|---0~--0~--0~---0~--0~--0~---|


************************************

| b   Bend
| ~   Vibrato
| h   Hammer-on
| p   Pull-off
| /   Slide up
| tr  Trill
| x   Dead note

************************************

            
            
Suggest correction
Creating personal tab
Creating personal tab
You can edit any tab online and save it as your Personal.

You can edit, replace or remove any tab part or add personal notes – all changes will be seen only by you.

Personal tabs can be accessed anytime from any device, even offline.
Learn more »
Give kudos to tab author, rate the tab!
1 2 3 4 5
comments
print report bad tab
guest
You may want to rate the tab now too:
select rating
Wanna post a correction for this tab? Suggest correction