Oops, an error
Loading. Please wait.

Breathe Tab

version 1
version 1

Whole song

294 views 1 this week
no commentswrite comment
1 2 3 4 5
please rate
add to favorites
launch autoscroll
font size
0
reset
how to read this tab
guitar tuner
Tab Pro tools
  • play this tab
  • loop segment
  • change instrument
  • show fretboard
  • metronome
×
Best way to learn
"Breathe"
Autoscroll
slow
fast
+/-
esc
set tempo
stop
Seven Channels - Breathe
standard tuning, moderate dist.                             


 The heavy power chord during the verse is the bass, 
 not the guitar. I came up with this myself so I dont 
 know if its right or not,but its better than nothing. 
 Feel free to improve on it.


Intro/Verse
E|---------------------------------\
B|----------5-5-5----------4-4-4--- \
G|--------6--------------4---------  \  repeat
D|------6--------------4-----------  /
A|----4--------------2------------- /
E|---------------------------------/Chorus
E|--------------------------------------------------------
B|--------------------------------------------------------
G|--------------------------------------------------------
D|----7--7--7--x--9--x--9--x--11-x--11-x--6--6------------
A|----7--7--7--x--9--x--9--x--11-x--11-x--6--6------------
E|----5--5--5--x--7--x--7--x--9--x--9--x--4--4------------Thats pretty much it. Go Smurfs.
comments
We did not receive enough feedback on this tab! Please rate:
print report bad tab
1 2 3 4 5
I want to post or [tab]
guest
You may want to rate the tab now too:
select rating
Please do not post tabs as comments. Select "correction" instead!