Oops, an error
Loading. Please wait.

Cumbersome bass

version 2
version 2

Whole song

Interactive

9,500 views 1 this week
no commentswrite comment
1 2 3 4 5
x 7
add to favorites
×
Save as Personal and add changes to this tab that will be seen only by you. Learn more ›
×
You can save this tab as Personal to edit and correct it or add notes. All changes will be seen only by you. Learn more »
launch autoscroll
font size
0
reset
guitar tuner
backing track
0:00
0:00
edit
Autoscroll
slow
fast
+/-
esc
set tempo
stop
Author
Difficulty
Seven Mary Three - Cumbersome

G|--------------------------|-----------------------------|
D|--------------------------|--2--2--2-2-2-2----L-4-2-0---|
A|----------------------2-4-|---------------------------4-|
E|--2--2------2--2--2-4-----|-----------------------------|

G|--------------------------|-----------------------|--------------------------|
D|--------------------------|-----------------------|--------------------------|
A|--2--2----2---2---4-2-0---|-----------------------|----------------------2-4-|
E|------------------------4-|--2--2------2----------|--2--2------2--2--2-4-----|


G|-----------------------------|--------------------------|
D|--2--2--2-2-2-2----L-4-2-0---|--------------------------|
A|---------------------------4-|--2--2----2---2---4-2-0---|
E|-----------------------------|------------------------4-|


G|-----------------------|-----------------------|-----------------------|
D|-----------------------|-----------------------|-----------------------|
A|-----------------------|-----------------------|-----------------------|
E|--2--2------2----------|--0h-2------2---2------|--5----5---5---5--7----|

G|----------------------|-------------------------------|-----------------------|
D|----------------------|-------------------------------|-----------------------|
A|--7----7---7---7------|--9---9-9-----9----9----9-9----|-----------------------|
E|----------------------|-------------------------------|--0h-2------2---2------|

G|-----------------------|----------------------|-------------------------------|
D|-----------------------|----------------------|-------------------------------|
A|-----------------------|--7----7---7---7------|--9---9-9-----9----9----9-9----|
E|--5----5---5---5--7----|----------------------|-------------------------------|

G|--------------------------|-----------------------------|
D|--------------------------|--2--2--2-2-2-2----L-4-2-0---|
A|----------------------2-4-|---------------------------4-|
E|--2--2------2--2--2-4-----|-----------------------------|


G|--------------------------|-----------------------|--------------------------|
D|--------------------------|-----------------------|--------------------------|
A|--2--2----2---2---4-2-0---|-----------------------|----------------------2-4-|
E|------------------------4-|--2--2------2----------|--2--2------2--2--2-4-----|

G|-----------------------------|--------------------------|
D|--2--2--2-2-2-2----L-4-2-0---|--------------------------|
A|---------------------------4-|--2--2----2---2---4-2-0---|
E|-----------------------------|------------------------4-|

G|-----------------------|-----------------------|-----------------------|
D|-----------------------|-----------------------|-----------------------|
A|-----------------------|-----------------------|-----------------------|
E|--2--2------2----------|--0h-2------2---2------|--5----5---5---5--7----|

G|----------------------|-------------------------------|-----------------------|
D|----------------------|-------------------------------|-----------------------|
A|--7----7---7---7------|--9---9-9-----9----9----9-9----|-----------------------|
E|----------------------|-------------------------------|--0h-2------2---2------|

G|-----------------------|----------------------|-------------------------------|
D|-----------------------|----------------------|-------------------------------|
A|-----------------------|--7----7---7---7------|--9---9-9-----9----9----9-9----|
E|--5----5---5---5--7----|----------------------|-------------------------------|

G|---------------------------|--------------------------------|
D|---------------------------|--------------------------------|
A|---------------------------|--------------------------------|
E|--2-2---2-2---2-2-2-2-2----|--5-5-5-5-5-5-5-5-5-5-5-5-5-----|

G|--------------------|--------------------------------|
D|--------------------|--------------------------------|
A|--7----7------------|--9---9-9----9-9----9----9-9----|
E|--------------------|--------------------------------|


G|---------------------------|--------------------------------|
D|---------------------------|--------------------------------|
A|---------------------------|--------------------------------|
E|--2-2---2-2---2-2-2-2-2----|--5-5-5-5-5-5-5-5-5-5-5-5-5-----|

G|--------------------|--------------------------------|
D|--------------------|--------------------------------|
A|--7----7------------|--9---9-9----9-9----9----9-9----|
E|--------------------|--------------------------------|

G|--------------------------|--------------------------|-----------------------|
D|--------------------------|--------------------------|-----------------------|
A|--0--0--------------------|--7--7----9---9---9-9-----|--0--0-----------------|
E|-------------2------2-----|--------------------------|----------2------2-----|


G|----------------------|------------------------|
D|----------------------|------------------------|
A|--7--7----9--------L--|--L---------------------|
E|----------------------|-----------0---2-2-2--2-|

G|----------------------------------|--------------------------------|
D|----------------2----2----2-2-2-2-|--L-----4-2-0-------------------|
A|------------2-4-------------------|--------------4-2----2--2-2-2-2-|
E|--L--2--2-4-----------------------|--------------------------------|

G|-------------------------------|-------------------------|
D|-------------------------------|-------------------------|
A|--L----4-2-0-------------------|-------------------------|
E|-------------4-2----2--2-2-2-2-|--L---------0---2-2--2-2-|


G|----------------------------------|--------------------------------|
D|----------------2----2----2-2-2-2-|--L-----4-2-0-------------------|
A|------------2-4-------------------|--------------4-2----2--2-2-2-2-|
E|--L--2--2-4-----------------------|--------------------------------|

G|-------------------------------|-------------------------|
D|-------------------------------|-------------------------|
A|--L----4-2-0-------------------|-------------------------|
E|-------------4-2----2--2-2-2-2-|--L---------0---2-2--2-2-|

G|----------------------------------|----------------------------------|
D|----------------2----2----2-2-2-2-|--L-----4-2-0---------------------|
A|------------2-4-------------------|--------------4-2----2----2-2-2-2-|
E|--L--2--2-4-----------------------|----------------------------------|

G|-------------------------|------------------------|
D|-------------------------|------------------------|
A|--L-----4-2-0------------|------------------------|
E|--------------4-2--------|--L----L--------2---2-2-|

G|-------------------------------|----------------------------|
D|-------------------------------|----------------------------|
A|-------------------------------|--------------------7----7--|
E|--L--2-2-2-2-2-----5-5-5-5-5-5-|--5-5-5-5-5-5-5-------------|


G|--------------------------|---------------------------------|
D|--------------------------|------L--------------------------|
A|--L--L---------9---9-9----|--9-9-----9----9-9---------------|
E|--------------------------|-----------------------2-2---2-2-|


G|-------------------------------|----------------------------|
D|-------------------------------|----------------------------|
A|-------------------------------|--------------------7----7--|
E|--L--2-2-2-2-2-----5-5-5-5-5-5-|--5-5-5-5-5-5-5-------------|


G|--------------------------9-11-|--L-11~-L-9----------------------|
D|---------------------9-11------|------------11-9-----------------|
A|--L--L----L-----9-11-----------|-----------------11--9--0--0-----|
E|-------------------------------|---------------------------------|

G|------------------------|--------------------------|------------------------|
D|------------------------|-----L--------------------|------------------------|
A|----------------7--7----|--9----9---9-9----0--0----|----------------7--7----|
E|--2--L----2-------------|--------------------------|--2--L----2-------------|

G|-------11-9--------------------|-----------------------|-----------------------|
D|------------11-9---------------|---------------2--2----|----------4------------|
A|--9--L-----------11-9--0--0----|-----------------------|---------------0--0----|
E|-------------------------------|--2--L----2------------|--2--L-----------------|

G|----------------------|---------------------||
D|--------------2--2----|---------------------||
A|----------------------|---------------------||
E|--2--2----------------|--2--L------------L--||



************************************

| h  Hammer-on
| ~  Vibrato
| L  let ring

************************************

            
            
Suggest correction
Creating personal tab
Creating personal tab
You can edit any tab online and save it as your Personal.

You can edit, replace or remove any tab part or add personal notes – all changes will be seen only by you.

Personal tabs can be accessed anytime from any device, even offline.
Learn more »
comments
print report bad tab
guest
You may want to rate the tab now too:
select rating
Wanna post a correction for this tab? Suggest correction