Oops, an error
Loading. Please wait.

Cumbersome Tab

version 2
version 2

Whole song

  • I worked very hard on this tab. Personally I haven... Show more

Interactive

24,436 views 3 this week
10 commentsread comments
1 2 3 4 5
x 16
add to favorites
launch autoscroll
font size
0
reset
how to read this tab
guitar tuner
backing track
0:00
0:00
Autoscroll
slow
fast
+/-
esc
set tempo
stop
seven mary three - cumbersome
standard tuneing
listen to the song for the strumming pattern theres alot of palm muteing

intro                         
|--2--------0-------2-----2--|
|--2--------0-------2-----2--|
|--3--------1-------4-----3--|
|--4--------2-------4-----4--|
|--4--------2-------2-----4--|
|--2--------0-------x-----2--|
                                        
  part 2                   
|--2--2-----------5--5---------------0--0-----------2--|
|--2-----2--------5-----5------------0-----0--------2--|
|--3--------3-----6--------6---------1--------1-----3--|
|--4--------------7------------------2--------------4--|
|--4--------------7------------------2--------------4--|
|--2--------------5------------------0--------------2--|
                                        
  part 3                            
|--2-----5-----0--0-----2--|
|--2-----5-----0--0-----2--|
|--3-----6-----1--1-----3--|
|--4-----7-----2--2-----4--|
|--4-----7-----2--2-----4--|
|--2-----5-----0--0-----2--|
                                        
  part 4                            
|------------------0---------| 
|------------------0---------|
|------------------9---------|
|--11-----9-----9--------11--|
|--9------7-----9--------9---|
|--9------7-----7--------9---|
                                        
    part 5                           
|--5-----2-----0-----2--|
|--5-----2-----0-----2--|
|--6-----3-----1-----3--|
|--7-----4-----2-----4--|
|--7-----4-----2-----4--|
|--5-----2-----0-----2--|

 part 6                          
|--2-----2-----0-----0----------0-----2--------------| 
|--2-----------0----------------------2--------------|
|--3-----------1----------------------3-----3^-^-^---|
|--4-----------2-----------4----------4--------------|
|--4-----------2-----------2----------4--------------|
|--2-----------0-----------2----------2--------------|

       part 7                          
|------------------------------------------------------|
|------------------------------------------------------|
|--------------9--10-----10--9-------------------------|
|-------9--10-------------------10--9------------------|
|9--10-----------------------------------10--9---------|
|-----------------------------------------------10--9--|
Suggest correction
comments
print report bad tab
10 comments total. Showing first comments.
-1 reply
acdc_matt 10 Aug 06, 2006 04:37 PM

oh i dunno haha lol haha lol haha lol.....nice tab

+2 reply
huntingghost87 10 Oct 10, 2006 09:48 AM

Hey guys, never made a tab or anything before, but was just messin around with this tab, and the intro sounds off to me. Instead of 244322, to a 022100, to a 244xxx, to a 244322 again. It seems to me that it should be 244322, to a 022100, to a x24422, back to the 244322. Of course with the proper mutes and what not thrown in there also. Not sure if this is right, but it sounds pretty close, Let me know what ya's think.

-2 reply
stdxDarkmage794 10 Nov 21, 2006 09:32 AM

pretty sweet, nice work i guess

guest
You may want to rate the tab now too:
select rating
Wanna post a correction for this tab? Suggest correction