Oops, an error
Loading. Please wait.

Cumbersome bass

version 3
version 3

Whole song

Interactive

6,961 views 3 this week
no commentswrite comment
1 2 3 4 5
2 more votes to show rating
add to favorites
×
Save as Personal and add changes to this tab that will be seen only by you. Learn more ›
×
You can save this tab as Personal to edit and correct it or add notes. All changes will be seen only by you. Learn more »
launch autoscroll
font size
0
reset
guitar tuner
backing track
0:00
0:00
edit
Autoscroll
slow
fast
+/-
esc
set tempo
stop
Author
Gtr I (E A D G) - 'Staff'


Q=81
4/4
Gtr I

   E E +Q   E E S S S S   E E S S S S +Q   S S S S   E E +E. S E E S S S S
G|----------------------|--------------------------|-----------------------|
D|----------------------|-2-2-2-2-2-2-(2)--4-2-0---|-----------------------|
A|------------------2-4-|------------------------4-|-2-2-(2)-2-2-2-4-2-0---|
E|-2-2-(2)--2-2-2-4-----|--------------------------|---------------------4-|


   E E +E. S +Q   E E   +Q   E E S S S S E E   S S S S +Q   S S S S E E
G|--------------------|----------------------|--------------------------|
D|--------------------|------------------2-2-|-2-2-2-2-(2)--4-2-0-------|
A|--------------------|--------------2-4-----|--------------------4-2-2-|
E|-2-2-(2)-2-(2)--2-2-|-(2)--2-2-2-4---------|--------------------------|


   +E. S E E S S S S E E   +E. S +Q   S E. E. S
G|-----------------------|----------------------|
D|-----------------------|----------------------|
A|-(2)-2-2-2-4-2-0-------|----------------------|
E|-----------------4-2-2-|-(2)-2-(2)--0-2--2--2-|


   +E  E +Q   Q  E. S   +E  E +Q   Q  E. S
G|--------------------|--------------------|
D|--------------------|------------2--2--2-|
A|------------0--0--0-|-(0)-0-(0)----------|
E|-(2)-2-(2)----------|--------------------|


   +E  E +Q   S E S E S S   +S  E S Q  S E. E. S
G|------------------------|----------------------|
D|-(2)-2-(2)--4-4-4-4-4-4-|-(4)-4-4-4------------|
A|------------------------|----------------------|
E|------------------------|------------0-2--2--2-|


   +E  E +Q   Q  E. S   +E  E +Q   Q  E. S
G|--------------------|---------------------|
D|--------------------|------------2--2--2--|
A|------------0--0--0-|-(0)-0-(0)-----------|
E|-(2)-2-(2)----------|---------------------|


   +E  E +Q   S E S E S S   +S  E S Q  E E +E  E   E E S S S S E E E E
G|------------------------|----------------------|----------------------|
D|-(2)-2-(2)--4-4-4-4-4-4-|-(4)-4-4-4------------|-------------2-2---2--|
A|------------------------|----------------------|---------2-4----------|
E|------------------------|------------2-2-(2)---|-2-2-2-4--------------|


   +Q   S S S S E E E E   +Q   S S S S E E E E   +H     E E +E  E
G|----------------------|----------------------|------------------|
D|-(2)--4-2-0-----------|----------------------|------------------|
A|------------4-2-2---2-|-(2)--4-2-0-----------|------------------|
E|----------------------|------------4-2-2---2-|-(2)----2-2-(2)---|


   E E S S S S E E E E   +Q   S S S S E E E E   +Q   S S S S E E E E
G|---------------------|----------------------|----------------------|
D|-------------2-2---2-|-(2)--4-2-0-----------|----------------------|
A|---------2-4---------|------------4-2-2---2-|-(2)--4-2-0-----------|
E|-2-2-2-4-------------|----------------------|------------4-2-2---2-|


   +H     S E. +E. S   +E  E +Q   Q..   S
G|-------------------|--------------------|
D|-------------------|--------------------|
A|-------------------|------------0-----0-|
E|-(2)----0-2--(2)-2-|-(2)-2-(2)----------|


   +E  E +Q   Q..   S   +E  E +Q   S S S S S S S S
G|--------------------|----------------------------|
D|------------2-----2-|-(2)-2-(2)------------------|
A|-(0)-0-(0)----------|----------------------------|
E|--------------------|------------2-2---2-2-2-0-2-|


   S S S S Q  S E. +E. S   +E  E +Q   Q..   S   +E  E +Q   Q..   S
G|-----------------------|--------------------|--------------------|
D|-----------------------|--------------------|------------2-----2-|
A|-----------------------|------------0-----0-|-(0)-0-(0)----------|
E|---2---2-2--0-2--(2)-2-|-(2)-2-(2)----------|--------------------|


   +E  E +Q   S S S S S S S S   S S S S Q  S S S S S S S S
G|----------------------------|-----------------------------|
D|-(2)-2-(2)------------------|-----------------------------|
A|----------------------------|-----------------------------|
E|------------2-2---2-2-2-0-2-|---2---2-2--2-2-2-2-2-2-2-2--|


   S S S S S S S S S S S S S S S S   S S S S S S S S Q  S S E
G|---------------------------------|--------------------------|
D|---------------------------------|-----------------2--2---2-|
A|-----------------0-0-0-0-0-0-0-0-|-0-0-0-0-0-0-0-0----------|
E|-2-2-2-2-2-2-2-2-----------------|--------------------------|


   +H     E S S E S S   S S S S Q  S S S S S S S S
G|--------------------|----------------------------|
D|-(2)----------------|----------------------------|
A|--------------------|----------------------------|
E|--------2-2-2-2-2-2-|---2---2-2--2-2-2-2-2-2-2-2-|


   S S S S S S S S S S S S S S S S   S S S S S S S S Q  S S E
G|---------------------------------|--------------------------|
D|---------------------------------|-----------------2--2---2-|
A|-----------------0-0-0-0-0-0-0-0-|-0-0-0-0-0-0-0-0----------|
E|-2-2-2-2-2-2-2-2-----------------|--------------------------|


   +H     E S S E S S   S S S S Q  E E E E   +H     E E E E
G|--------------------|--------------------|----------------|
D|-(2)----------------|--------------------|----------------|
A|--------------------|------------0-0-----|----------------|
E|--------2-2-2-2-2-2-|---2---2-2--------2-|-(2)----0-0---2-|


   +S  E S E S S E E E E   +H     E E E E
G|-----------------------|----------------|
D|-----------------------|----------------|
A|---------------0-0-----|----------------|
E|-(2)-2-2-2-2-0-------2-|-(2)----0-0---2-|


                  4/4
   +H     +H       S E. E S S +E  E S S S S
G|---------------|--------------------------|
D|---------------|--------------------------|
A|---------------|----------------------2-4-|
E|-(2)----(2)----|-0-2--2-2-2-(2)-2-2-4-----|


   E E S S S S +Q   S S S S   E E E S S +Q   S S S S   E E S S S S +H
G|--------------------------|------------------------|--------------------|
D|-2-2-2-2-2-2-(2)--4-2-0---|------------------------|--------------------|
A|------------------------4-|-2-2-2-2-2-(2)--4-2-0---|--------------------|
E|--------------------------|----------------------4-|-2-2-2-2-2-2-(2)----|


   S E. E S S +E  E S S S S   E E +Q   Q  S S S S   E E S S S S +Q   S S S S
G|--------------------------|---------------------|--------------------------|
D|--------------------------|-2-2-(2)--2--4-2-0---|--------------------------|
A|----------------------2-4-|-------------------4-|-2-2-2-2-2-2-(2)--4-2-0---|
E|-0-2--2-2-2-(2)-2-2-4-----|---------------------|------------------------4-|


   E E S S S S +H       S E. E S S +E  E S S S S   E E S S S S +Q   S S S S
G|--------------------|--------------------------|--------------------------|
D|--------------------|--------------------------|-2-2-2-2-2-2-(2)--4-2-0---|
A|--------------------|----------------------2-4-|------------------------4-|
E|-2-2-2-2-2-2-(2)----|-0-2--2-2-2-(2)-2-2-4-----|--------------------------|


   E E E S S +Q   S S S S   H    +H       S S S S S S S S S S S S S S S S
G|------------------------|-------------|---------------------------------|
D|------------------------|-------------|---------------------------------|
A|-2-2-2-2-2-(2)--4-2-0---|-------------|---------------------------------|
E|----------------------4-|-2----(2)----|-2-2-2-2-2-2-2-2-2-2-2-2-2-2-2-2-|


   S S S S S S S S S S S S S S S S   Q  S S E +H       E S S E S S S S S S Q
G|---------------------------------|-----------------|------------------------|
D|---------------------------------|-2--2---2-(2)----|------------------------|
A|-0-0-0-0-0-0-0-0-0-0-0-0-0-0-0-0-|-----------------|------------------------|
E|---------------------------------|-----------------|-2-2-2-2-2-2---2---2-2--|


   S S S S S S S S S S S S S S S S   S S S S S S S S S S S S S S S S
G|---------------------------------|---------------------------------|
D|---------------------------------|---------------------------------|
A|---------------------------------|-0-0-0-0-0-0-0-0-0-0-0-0-0-0-0-0-|
E|-2-2-2-2-2-2-2-2-2-2-2-2-2-2-2-2-|---------------------------------|


   Q  S S E +H       S S S S S  E  S  +S  S  S S  E E   E E E E +H
G|-----------------|-----4-6-9-11-11-(11)-9-----------|----------------|
D|-2--2---2-(2)----|-4-6--------------------11-9------|----------------|
A|-----------------|-----------------------------11-9-|-0-0------------|
E|-----------------|----------------------------------|-------2-(2)----|


   E E E E +S  E S E S S   E E E E +H       E E E E +S  S S S S S S S
G|-----------------------|----------------|---------------------------|
D|-----------------------|----------------|-------------4-2-----------|
A|-----------------------|-0-0------------|-----------------4-2---2---|
E|-0-0---2-(2)-2-2-2-2-0-|-------2-(2)----|-0-0---2-(2)---------4---4-|


   E E E E +H       E E E E +H       E E E E +H       E E E E +H
G|----------------|----------------|----------------|----------------|
D|----------------|----------------|----------------|----------------|
A|----------------|----------------|-0-0------------|----------------|
E|-5-5---2-(2)----|-0-0---2-(2)----|-------2-(2)----|-0-0---2-(2)----|


   +W           +W           +H     +H
G|------------|------------|---------------*|
D|------------|------------|---------------*|
A|------------|------------|---------------*|
E|-(2)--------|-(2)--------|-(2)----(2)----*|


************************************

| (n)  Ghost note

************************************

            
            
Suggest correction
Creating personal tab
Creating personal tab
You can edit any tab online and save it as your Personal.

You can edit, replace or remove any tab part or add personal notes – all changes will be seen only by you.

Personal tabs can be accessed anytime from any device, even offline.
Learn more »
Give kudos to tab author, rate the tab!
1 2 3 4 5
comments
print report bad tab
guest
You may want to rate the tab now too:
select rating
Wanna post a correction for this tab? Suggest correction