Oops, an error
Loading. Please wait.

Cumbersome Bass Tab

version 5
version 5

Whole song

Interactive

19 views 3 this week
no commentswrite comment
1 2 3 4 5
3 more votes to show rating
add to favorites
launch autoscroll
font size
0
reset
guitar tuner
Autoscroll
slow
fast
+/-
esc
set tempo
stop
Help us to improve Ultimate-Guitar.com Take our survey!
×
Author
Difficulty
intermediate
About this tab version
This tab is to learn it as an Easy Cover. Lots of E String on Chorus to Help with Slides. Was this info helpful? Yes No
Cumbersome Bass Tab by Seven Mary Three
    

[Intro]

Guitar Only
G|-----R---|---R---|---R---|---R---|
D|-----E---|---E---|---E---|---E---|
A|-----S---|---S---|---S---|---S---|
E|-----T---|---T---|---T---|---T---|


[Verse]

G|-----------------------|---------------------|--------------------|--------|
D|--*--------------------|-2-2---2-2---4-2-0---|--------------------|-------*|
A|--*----------------2-4-|-------------------4-|-2---2--2---4-2-0---|-------*| 
E|---2-2---2-2---2-4-----|---------------------|------------------4-|-2--2-2-|(x2)


[Chorus]

    "I have become..."
G|-------------------------------|------------------------------|
D|--*----------------------------|-----------------------------*|
A|--*----------------------------|-----------------------------*| 
E|---2-2-2-2/5-5-5-5/12-12-12-12-|-14-14--14-14--14--14--14-14\-|(x2)
    

[Bridge/Break]

G|-----------------------------------------------|
D|--*--------------------------------------------|
A|--*--------------------------------------------|
E|---2-2--2-2--2-2-2-2-2-2|5-5--5-5--5-5-5-5-5-5/|

G|-------------------------------------------------------|
D|------------------------------------------------------*|
A|------------------------------------------------------*| 
E|---/12--------12---------|-14-14-14-14-14--14-14-14-14-|(x2)


[Post-Chorus]

                  1.                      2.
G|--------------|----------------------|-------------|
D|--------------|---------------------*|-------------|
A|--------------|---------------------*|-------------|
E|---5--5--2--2-|-12-12--14--14--14-14-|-12-12--14*--|


[Bass Solo]

G|-----------------------|---------------------|--------------------|--------|
D|-----------------------|-2-2---2-2---4-2-0---|--------------------|--------|
A|-------------------2-4-|-------------------4-|-2---2--2---4-2-0---|--------|
E|---2-2---2-2---2-4-----|---------------------|------------------4-|-2--2-2-|
     

[Outro Chorus]

                                      1.
G|-------------------------------|------------------------------|
D|--*----------------------------|-----------------------------*|
A|--*----------------------------|-----------------------------*|
E|---2-2-2-2/5-5-5-5/12-12-12-12-|-14-14--14-14--14--14--14-14\-|

        2.
G|-------------9-11--11-9-----------|
D|--------9-11------------11-9------|
A|---9-11----------------------11-9-|
E|----------------------------------|


[Outro]

G|--------------|----------------------|------------|----------11-9-----------|
D|--------------|----------------------|------------|---------------11-9------|
A|--------------|----------------------|------------|--------------------11-9-|
E|---5--5--2--2-|-12--12--14-14--14-14-|-5--5--2--2-|-12-12-14----------------|

G|---------------|---------|-------------|---------|
D|---------------|-2-2---4-|-------------|-2-2-----|
A|---------------|---------|-------------|---------|
E|---5--5--2--2--|-----2---|-5--5--2--2--|-----2---|

Song Order:

[Intro]
[Verse]
[Chorus]
[Verse]
[Chorus]
[Bridge/Break]
[Post Chorus]
[Bass Solo]
[Verse]
[Outro Chorus]
[Outro]


************************************

| /  Slide Up
| \  Slide Down
| *  let ring
| 1. First Ending of Repeat
| 2. Second Ending of Repeat

************************************
Suggest correction
Give kudos to tab author, rate the tab!
1 2 3 4 5
comments
print report bad tab
guest
You may want to rate the tab now too:
select rating
Wanna post a correction for this tab? Suggest correction