Oops, an error
Loading. Please wait.

Texas Rain tab

136 views 3 this week
no commentswrite comment
1 2 3 4 5
2 more votes to show rating
add to favorites
×
Save as Personal and add changes to this tab that will be seen only by you. Learn more ›
×
You can save this tab as Personal to edit and correct it or add notes. All changes will be seen only by you. Learn more »
launch autoscroll
font size
0
reset
how to read this tab
guitar tuner
edit
Autoscroll
slow
fast
+/-
esc
set tempo
stop
Capo 2

[Riff 1]
e|----------------------|
B|-----12-10-----12-14--|
G|-9h11------9h11-------|
D|----------------------|
A|----------------------|
E|----------------------|

[Riff 2]
e|-------------------------------------|
B|-----10--12--10-------10--12/14------|
G|-9h11--11--11--11-9h11--11------(11)-|
D|-------------------------------------|
A|-------------------------------------|
E|-------------------------------------|

[Intro] 
Em G D Asus4 (x2)

[Verse 1]
           Em
That poor soul
           G
He looks wrecked
        D                 Asus4
Putting out his last cigarette
              Em
As she drives off
              G
Those damn wheels
               D                     Asus4
Keep turning round and round in his head

[Riff 1]
e|----------------------|
B|-----12-10-----12-14--|
G|-9h11------9h11-------|
D|----------------------|
A|----------------------|
E|----------------------|

         Em              G
She goes off to someone else

[Riff 1]
e|----------------------|
B|-----12-10-----12-14--|
G|-9h11------9h11-------|
D|----------------------|
A|----------------------|
E|----------------------|

            D             Asus4
He starts thinking to himself

[Chorus]
            Em                   G
When she's around, she makes me sad
            D                       Asus4
When she's gone, I wish she'd come back
         Em            G                      D
And she never brings enough to quite ease my pain
                       Em
That girls like Texas rain

[Riff 2] (x4)
e|-------------------------------------|
B|-----10--12--10-------10--12/14------|
G|-9h11--11--11--11-9h11--11------(11)-|
D|-------------------------------------|
A|-------------------------------------|
E|-------------------------------------|

Em G D Asus4 (x2)
 
[Verse 2]
           Em
Two shots down
             G
A bottle to go
         D                 Asus4
Nowhere left to drown his soul
            Em            G              
Except that hole she left in the driveway
     D              Asus4
With all her tire tracks

[Riff 1]
e|----------------------|
B|-----12-10-----12-14--|
G|-9h11------9h11-------|
D|----------------------|
A|----------------------|
E|----------------------|

         Em             G
She goes off to someone else

[Riff 1]
e|----------------------|
B|-----12-10-----12-14--|
G|-9h11------9h11-------|
D|----------------------|
A|----------------------|
E|----------------------|

            D             Asus4
He starts thinking to himself

[Chorus]
            Em                   G
When she's around, she makes me sad
            D                       Asus4
When she's gone, I wish she'd come back
         Em            G                      D
And she never brings enough to quite ease my pain
      Asus4            Em
That girls like Texas rain

[Solo] 
Em G D Asus4 (x2)
e|---------------------------------------------------------------------------|
B|-10---------10-------10---------10-----------------------------------------|
G|-9h11-11-11-9-9-9-9--9h11-11-11-9-9-9-9------------------------------------|
D|-----------------------------------------9h11-7-9--7--6--6h7-6-4-2-4-2-----|
A|-----------------------------------------------------------------------4-2-|
E|---------------------------------------------------------------------------|

e|--------------------------------------------12--12--12-17-(12)-------------|
B|---------------------------10--10--10--12h14--14--14----------14-----------|
G|--------------6/9-9/2--9h11--11--11----------------------------------------|
D|--2-4/7/2--4-7-------------------------------------------------------------|
A|-4-------------------------------------------------------------------------|
E|---------------------------------------------------------------------------|
   
[Chorus]
         
[Riff 1]
e|----------------------|
B|-----12-10-----12-14--|
G|-9h11------9h11-------|
D|----------------------|
A|----------------------|
E|----------------------|

            Em                   G
When she's around, she makes me sad

[Riff 1]
e|----------------------|
B|-----12-10-----12-14--|
G|-9h11------9h11-------|
D|----------------------|
A|----------------------|
E|----------------------|

            D                       Asus4
When she's gone, I wish she'd come back

[Riff 1] (x2)
e|----------------------|
B|-----12-10-----12-14--|
G|-9h11------9h11-------|
D|----------------------|
A|----------------------|
E|----------------------|

         Em            G                      D
And she never brings enough to quite ease my pain
            Em                   G
When she's around, she makes me sad
            D                       Asus4
When she's gone, I wish she'd come back
         Em            G                      D
And she never brings enough to quite ease my pain
      Asus4            Em
That girls like Texas rain

[Outro]
[Riff 2] (x4)
e|-------------------------------------|
B|-----10--12--10-------10--12/14------|
G|-9h11--11--11--11-9h11--11------(11)-|
D|-------------------------------------|
A|-------------------------------------|
E|-------------------------------------|

Em G D Asus4

[Ending] 
Em


************************************

| h    Hammer-on
| /    Slide up
| (n)  Ghost note

************************************

            
            
Suggest correction
Creating personal tab
Creating personal tab
You can edit any tab online and save it as your Personal.

You can edit, replace or remove any tab part or add personal notes – all changes will be seen only by you.

Personal tabs can be accessed anytime from any device, even offline.
Learn more »
Give kudos to tab author, rate the tab!
1 2 3 4 5
comments
print report bad tab
guest
You may want to rate the tab now too:
select rating
Wanna post a correction for this tab? Suggest correction