Oops, an error
Loading. Please wait.

Take Me As I Am intro tab

789 views 9 this week
1 commentread comment
1 2 3 4 5
2 more votes to show rating
add to favorites
×
Save as Personal and add changes to this tab that will be seen only by you. Learn more ›
×
You can save this tab as Personal to edit and correct it or add notes. All changes will be seen only by you. Learn more »
launch autoscroll
font size
0
reset
how to read this tab
guitar tuner
edit
Autoscroll
slow
fast
+/-
esc
set tempo
stop
Author
Difficulty
   E  E  E  E Q.   E    E  E E E H       Q  Q  E E Q    (W)
e|-------------------|-----------------|--------------|----------------|
B|-------------------|-----------------|--------------|----------------|
G|-11h12-11-9-11---9-|-(9)-7-7-9-7-----|-6--6--6-6-7--|-(7)------------|
D|-0--0--0--0-0----0-|--0--0-0-0-0-----|-4--4--4-4-5--|-(5)------------|
A|-------------------|-----------------|-4--4--4-4-5--|-(5)------------|
E|-------------------|-----------------|-2--2--2-2-3--|-(3)------------|

            
            
Suggest correction
Creating personal tab
Creating personal tab
You can edit any tab online and save it as your Personal.

You can edit, replace or remove any tab part or add personal notes – all changes will be seen only by you.

Personal tabs can be accessed anytime from any device, even offline.
Learn more »
Give kudos to tab author, rate the tab!
1 2 3 4 5
comments
print report bad tab
1 comment total.
0 reply
hulk7999 76 Jun 12, 2017 08:29 PM

Nice job, the only thing thats different is the song is in Drop D and tuned down a half step. So the last set of chords are actually this.... Yours isn't exactly wrong, but its easier on the hands like this...I was the actual guitar player for Seven Wiser/Fallzone so this is how I played it. Thanks for tabbing this (years ago).

Q Q E E Q (W)
-------------------I----------------I
-------------------I----------------I
-------------------I----------------I
-7---7---x--x---7--I--(7)-----------I
-5---5---x--x---5--I--(5)-----------I
-4---4---x--x---5--I--(5)-----------I

guest
You may want to rate the tab now too:
select rating
Wanna post a correction for this tab? Suggest correction