Oops, an error
Loading. Please wait.

Better Place Tab

2,914 views 1 this week
no commentswrite comment
1 2 3 4 5
excellent!
x 4
add to favorites
launch autoscroll
font size
0
reset
how to read this tab
guitar tuner
Tab Pro tools
  • play this tab
  • loop segment
  • change instrument
  • show fretboard
  • metronome
×
Best way to learn
"Better Place"
Autoscroll
slow
fast
+/-
esc
set tempo
stop
Contributor
BETTER PLACE tuning - B F# B E F# B
Tabbed by JDD36

X - muted string                (note). - immediately mute note
/ - slide up                    (note)  - palm mute
b - bend,   r - release         .(note)* - harmonic
h - hammer on                    p - pull off      ^(note)  - pinch harmonic
 
Intro
|-0-------------------0------0-------0-------2----0---------0-----0---|
|-0--0-----0--------0---0---------------------------0-----0---0-----0-|
|-7-----9-----9/11--------12---12/14-------0------------0-------0-----|
|-0--------------------------------------3----------------------------|
|-0-------------------------------------------------------------------|
|-0------------------------------------3--------------8---------------|

|------12/14---14/16---16----17----19--17----14---14b15r14--12--------|
|-12------------------------------------------------------------------|
|-------------------------14----14------------------------------------|
|----0----------------------------------------------------------------|
|---------------------------------------------------------------------|
|----------------------------------------------------------------1b5r-|

Intro 2 
(Guitar 1)
|-------------------------------------------------------------------|
|-------------------------------------------------------------------|
|-0-0----------------0-0-0-0-----0-0----------------0---0-0---0-0---|
  . .                . . . .     . .                .   . .   . .

(Guitar 2)
|-------------------------------------------------------------------|
|-------------------------------------------------------------------|
|-------------------------------------------------------------------|
|-------------------------------------------------------------------|
|-5p4-----4h5---------5h7-----7h8-----8h12---------7h10-----7h8-----|
|-----0-0-----0-0-0-0-----0-0-----0-0------0-0-0-0------0-0-----0-0-|
      . .     . . . .     . .     . .      . . . .      . .     . .

|-------------------------------------------------------------------|
|-------------------------------------------------------------------|
|-------------------------------------------------------------------|
|-------------------------------------------------------------------|
|-5p4-----4h5---------5h7-----7h8-----8h12---------10h13-----^12b---|
|-----0-0-----0-0-0-0-----0-0-----0-0------0-0-0-0-------0-0--------|
      . .     . . . .     . .     . .      . . . .       . .       

(Guitar 3 during second half)
|--------------------------------------------------------------------------|
|--------------------------------------------------------------------------|
|--------------------------------------------------------------------------|
|--------------------------------------------------------------------------|
|-8p7-----7h8---------8h10-----10h12-----12h15---------10h13-----10h12-----|
|-----0-0-----0-0-0-0------0-0-------0-0-------0-0-0-0-------0-0-------0-0-|
      . .     . . . .      . .       . .       . . . .       . .       . .

|--------------------------------------------------------------------------|
|--------------------------------------------------------------------------|
|--------------------------------------------------------------------------|
|------------------------------------------------------17p15-----^15b------|
|-8p7-----7h8---------8h10-----10h12-----12h15-----------------------------|
|-----0-0-----0-0-0-0------0-0-------0-0-------0-0-0-0-------0-0-----------|
      . .     . . . .      . .       . .       . . . .       . .       

Verse
(Guitar 1)
|-------------------------------------------------------------------|
|-------------------------------------------------------------------|
|-0-0----------------0-0-0-0-----0-0----------------0---0-0---0-0---|
  . .                . . . .     . .                .   . .   . .

(Guitar 2) listen to song for rhythm
|-15-------------10--------------------------|
|--x--0-------0------------0-------------0---|
|-14-----------------------------------------|
|-12-------8---------------------------8-----|
|----------------------10----------8---------|
|--------------------------------------------|

|-------------------------------------------------------------------|
|-------------------------------------------------------------------|
|-------------------------------------------------------------------|
|-------------------------------------------------------------------|
|-------------------------------------8h12---------7h10-----7h8-----|
|-5*5*5*5*5*5*5*5*5*5*5*5*5*5*5*5*5*5*----0-0-0-0-------0-0-----0-0-| 
                                          . . . .       . .     . .

|-------------------------------------------------------------------|
|-------------------------------------------------------------------|
|-------------------------------------------------------------------|
|-------------------------------------------------------------------|
|-------------------------------------8h12---------10h13-----^12b---|
|-5*5*5*5*5*5*5*5*5*5*5*5*5*5*5*5*5*5*----0-0-0-0--------0-0--------|  
                                          . . . .        . .

Pre Chorus
|-8-----8-----10-------10-------4-4-4-4-|
|-8-8-8-8-8-8-10-10-10-10-10-10-4-4-4-4-|
|-8-8-8-8-8-8-10-10-10-10-10-10-4-4-4-4-|
    . .   . .     .  .     .  .

Chorus (listen to song for strumming)
|-------------------------------------------------------------|
|-------------------------------------------------------------|
|-7-----9----11----12--14----5-------10-----------------------|
|-x-----x-----x-----x---x----3--------8-----------------1-----|
|-5-----7-----9----10--12----3--------8---------------0-1-----|
|-0-----0-----0-----0---0----3--------8---------------0-1-----|
                                                      .   

|-------------------------------------------------------------|
|-------------------------------------------------------------|
|-7-----9----11----12--14---12-14-15-14-12-14-----------------|
|-x-----x-----x-----x---x----x--x--x--x--x--x-----------------|
|-5-----7-----9----10--12---10-12-13-12-10-12-4-4-4-4-3-3-3-3-|
|-0-----0-----0-----0---0---------------------4-4-4-4-3-3-3-3-|
                                              . . . . . . . .


Bridge
|-----------------------------------------------------------------|
|-----------------------------------------------------------------|
|-----------------------------------------------------------------|
|-3-------------3---1---0-1-3-1-0-3-------------3---1-------------|
|-3-0-1-2-3-0-1-3-0-1-0-0-1-3-1-0-3-0-1-2-3-0-1-3-0-1-0-0---------|
|-3-0-1-2-3-0-1-3-0-1-0-0-1-3-1-0-3-0-1-2-3-0-1-3-0-1-0-0-330-6-0-|
    . . . . . .   .   .             . . . . . .   .   . . ...   .

Guitar Solo
(Guitar 1)
|-12h13r12--------------------------------------------------------------------|
|----------13r12-12h15r12-----------------------------------------------------|
|-------------------------13r12----12h13r12-----------------------------------|
|-------------------------------15----------13r12--12h15r12-------------------|
|-----------------------------------------------------------13r12--12h13r12\--|
|-----------------------------------------------------------------------------|

|--------------------------------------------------------|
|-------------------------------11/14-14-15-15-15-15-15--|
|-------------------12h14-10h12--------------------------|
|----------12h13h15--------------------------------------|
|-12h13h15-----------------------------------------------|
|--------------------------------------------------------|

|--------------------------------------------------------------|
|-15b17--------------------------------------------------------|
|--------------------------------------------------------------|
|----------------------------------------------------3---------|
|--------------------------------------------------------------|
|---------000-000-000-3-5-6-0-3-5-6\---000-000-003-6---6-5-3-0-|
          ... ... ..                   ... ... ..

(Guitar 2)
|--------------------------------------------------------------|
|--------------------------------------------------------------|
|--------------------------------------------------------------|
|----------------------------------------------------3---------|
|-5\-----------------------------------------------------------|
|---------000-000-000-1-3-5\------6\---000-000-003-6---6-5-3-0-|
          ... ... ..                   ... ... ..

|--------------------------------------------------12h15h17p15-12---15~--------10-------12~-|
|--------------------12-11-------------------12h15--------------------------11----11--------|
|-----------------10-------10-------10/12-14-----------------------------10----------10-----|
|-10b12--12-10-12-------------10h12---------------------------------------------------------|
|-------------------------------------------------------------------------------------------|
|-------------------------------------------------------------------------------------------|
comments
print report bad tab
I want to post or [tab]
guest
You may want to rate the tab now too:
select rating
Please do not post tabs as comments. Select "correction" instead!