Oops, an error
Loading. Please wait.

Coward tab

76 views 3 this week
no commentswrite comment
1 2 3 4 5
3 more votes to show rating
add to favorites
×
Save as Personal and add changes to this tab that will be seen only by you. Learn more ›
×
You can save this tab as Personal to edit and correct it or add notes. All changes will be seen only by you. Learn more »
launch autoscroll
font size
0
reset
how to read this tab
guitar tuner
edit
Autoscroll
slow
fast
+/-
esc
set tempo
stop
About this tab version
Full guitar tab of the song, including where 2 guitar parts differ. Was this info helpful? Yes No
Artist/Song:  Sevendust - Coward   
Album:        Best of (Chapter One 1997-2004)
Tuning:       Guitar 1        B F# B E G# B
              Guitar 2        B F# B E G# C# 
Tabbed by:    jjhand



[Intro]
    1       2       3       4         1       2       3       4
C#|---------------------------------|---------------------------------|
G#|---------------------------------|---------------------------------|
E |---------------------------------|---------------------------------|
B |---------------------------------|---------------------------------|  play 4x
F#|-----------------------3---------|---3-----------------------------|
B |-0-0---0---0-0-----0-0-3-----0---|-0-3-----0---0---0-0---0---0-0-0-|
    PM throughout on open string notes


[Verse]

Guitar 1 plays Intro Riff again 4x

Guitar 2 adds this on the front of the Intro riff before joining in each time:  
C#|---------------------------------------------------------------|
G#|---------------------------------------------------------------|
E |-----7-------5-------------------------------------------------|
B |---8-------7---------------------------------------------------|
F#|-6-------5-----------------------------------------------------|
B |---------------------------------------------------------------|



[Prechorus]

C#|----------------------|---------------------------|
G#|----------------------|---------------------------|
E |----------------------|---------------------------|   play 2x
B |----------------------|---------------------------|
F#|----------------------|---------------------------|
B |-10\-----0---0-0-10\--|---0---0-0-0---0-0-0---0-0-|
    "For you                 run away, run away"
    "Coward                  run away, run away"
  


[Chorus]

C#|----------------------|---------------------------|
G#|----------------------|---------------------------|
E |----------------------|---------------------------|   play 4x
B |----------------------|---------------------------|
F#|----------------------|---------------------------|   lyrics repeat
B |-10\-----0-----0-10\--|---0-----0-----0---0---0---|

1  Point the fucking gun at my head, I don't know what to 
2. do with it but I know what I should do with it now
 


[Preverse]
    1       2       3       4         1       2       3       4
C#|---------------------------------|---------------------------------|
G#|---------------------------------|---------------------------------|
E |---------------------------------|---------------------------------|
B |---------------------------------|---------------------------------|  play 4x
F#|-----------------------3---------|---3-----------------------------|
B |-0-0---0---0-0-----0-0-3-----0---|-0-3-----0---0---0-0---0---0-0-0-|



[Verse 2]

Guitar 1 plays Intro Riff again 4x

Guitar 2 adds this on the front of the Intro riff before joining in each time:  
C#|---------------------------------------------------------------|
G#|---------------------------------------------------------------|
E |-----7-------5-------------------------------------------------|
B |---8-------7---------------------------------------------------|
F#|-6-------5-----------------------------------------------------|
B |---------------------------------------------------------------|


[Prechorus 2]

C#|----------------------|---------------------------|
G#|----------------------|---------------------------|
E |----------------------|---------------------------|   play 2x
B |----------------------|---------------------------|
F#|----------------------|---------------------------|
B |-10\-----0---0-0-10\--|---0---0-0-0---0-0-0---0-0-|
    "For you                 run away, run away"
    "Coward                  run away, run away"
  


[Chorus 2]

C#|----------------------|---------------------------|
G#|----------------------|---------------------------|
E |----------------------|---------------------------|   play 4x
B |----------------------|---------------------------|
F#|----------------------|---------------------------|   lyrics repeat
B |-10\-----0-----0-10\--|---0-----0-----0---0---0---|

1  Point the fucking gun at my head, I don't know what to 
2. do with it but I know what I should do with it now



[Bridge]

    Gutiar 1
B |--------------------|-------------------|--------------------|-----------------|
G#|---------5----------|-----5-------------|-7------------------|-7---------------|
E |-----7-------7------|---7---7-----------|-----5--------------|-----5---7-------|
B |-0------------------|-0-----------------|--------------------|-----------------|
F#|--------------------|-------------------|--------------------|-----------------|
B |--------------------|-------------------|--------------------|-----------------|
  |
  | Gutiar 2
C#|--------------------|-------------------|-12-----------------|-----------------|
G#|-----13--15---------|-------15-------15-|-----13--15---------|------15---------|
E |-12-----------------|-12h14----12h14----|--------------------|-12h14----14br15-|
B |--------------------|-------------------|--------------------|-----------------|
F#|--------------------|-------------------|--------------------|-----------------|
B |--------------------|-------------------|--------------------|-----------------|


    Guitar 1
B |--------------------|-------------------|--------------------|-----------------------|
G#|---------5----------|-----5-------------|-7------------------|--------------------3--|
E |-----7-------7------|---7---7-----------|-----5---7----------|-----------------------|
B |-0------------------|-0-----------------|--------------------|-----------------------|
F#|--------------------|-------------------|--------------------|-----------------------|
B |--------------------|-------------------|--------------------|-----------------------|
  |
  | Gutiar 2
C#|--------------------|-------------------|--------------------|-----------------------|
G#|-----13--15---------|-------15----------|--------------------|-----------------------|
E |-12-----------------|-12h14----12h14----|-12-----------------|--12-10--9/10\9---12/14|
B |--------------------|---------------12--|-----10-12----------|-----------------------|
F#|--------------------|-------------------|--------------------|-----------------------|
B |--------------------|-------------------|--------------------|-----------------------|



[Bridge Part 2]

Play this part 3x:

    Guitar 1
B |-0---------0-----------|-0--------0---------|-0-----------------|-------------------|
G#|--------5----------5/6-|--------8--------0--|-------0--0h1----1-|-1--0-1/3-------3--|
E |-----------------------|--------------------|-------------------|-------------------|
B |-----------------------|--------------------|-------------------|-------------------|
F#|-----------------------|--------------------|-------------------|-------------------|
B |-----------------------|--------------------|-------------------|-------------------|
  |
  | Guitar 2
C#|-13--------------------|--------------------|-------------------|--------------------|
G#|-----------17----------|-17-------15--------|-12-------12h13----|-12---13/15---------|
E |--------14---------12--|-------12--------12-|-------12-------12-|----12--------12/14-|
B |-----------------------|--------------------|-------------------|--------------------|
F#|-----------------------|--------------------|-------------------|--------------------|
B |-----------------------|--------------------|-------------------|--------------------|
  
  
[Bridge Ending]
    Guitar 1
B |-0---------0-----------|-0--------0---------|-0------------0----|-------0-------0---|
G#|--------5----------5/6-|--------8--------0--|-------0h1---------|-----3----0h1------|
E |-----------------------|--------------------|-------------------|-------------------|
B |-----------------------|--------------------|-------------------|-------------------|
F#|-----------------------|--------------------|-------------------|-------------------|
B |-----------------------|--------------------|-------------------|-------------------|
  |
  | Guitar 2
C#|-----------------------|--------------------|------------------|--------------------|
G#|-18--------17----------|-17-------15-----12-|-------12--12-12--|-12-12--12-13---13--|
E |--------14---------12--|-------12-----------|-14--14-----------|--------------------|
B |-----------------------|--------------------|------------------|--------------------|
F#|-----------------------|--------------------|------------------|--------------------|
B |-----------------------|--------------------|------------------|--------------------|

    Guitar 1
B |-0------------0---|-------0-------0----|
G#|-------0h1--------|-----3----0h1-------|
E |------------------|--------------------|
B |------------------|--------------------|
F#|------------------|--------------------|
B |------------------|--------------------|
  |
  | Guitar 2
C#|------------------|--------------------|
G#|-------12--12-12--|-12-12--12-13~--13~-|
E |-14--14-----------|--------------------|
B |------------------|--------------------|
F#|------------------|--------------------|
B |------------------|--------------------|



[Last Prechorus]

C#|----------------------|---------------------------|
G#|----------------------|---------------------------|
E |----------------------|---------------------------|   play 2x
B |----------------------|---------------------------|
F#|----------------------|---------------------------|
B |-10\-----0---0-0-10\--|---0---0-0-0---0-0-0---0-0-|
    "For you                 run away, run away"
    "Coward                  run away, run away"
  


[Last Chorus]

C#|----------------------|---------------------------|
G#|----------------------|---------------------------|
E |----------------------|---------------------------|   play 4x
B |----------------------|---------------------------|
F#|----------------------|---------------------------|   lyrics repeat
B |-10\-----0-----0-10\--|---0-----0-----0---0---0---|

1  Point the fucking gun at my head, I don't know what to 
2. do with it but I know what I should do with it now



[Outro]

C#|---------------------------------|---------------------------------|
G#|---------------------------------|---------------------------------|
E |---------------------------------|---------------------------------|
B |---------------------------------|---------------------------------|  play 3x
F#|-----------------------3---------|---3-----------------------------|
B |-0-0---0---0-0-----0-0-3-----0---|-0-3-----0---0---0-0---0---0-0-0-|

C#|---------------------------------|---------------------------------|
G#|---------------------------------|---------------------------------|
E |---------------------------------|---------------------------------|
B |---------------------------------|---------------------------------|
F#|-----------------------3---------|---3-----------------------------|
B |-0-0---0---0-0-----0-0-3-----0---|-0-3-----0---0---0-0---0---0-0---|


Key:
| /   slide up
| \   slide down
| h   hammer-on
| p   pull-off
| ~   vibrato
| PM  palm mute

            
            
Suggest correction
Creating personal tab
Creating personal tab
You can edit any tab online and save it as your Personal.

You can edit, replace or remove any tab part or add personal notes – all changes will be seen only by you.

Personal tabs can be accessed anytime from any device, even offline.
Learn more »
Give kudos to tab author, rate the tab!
1 2 3 4 5
comments
print report bad tab
guest
You may want to rate the tab now too:
select rating
Wanna post a correction for this tab? Suggest correction