Oops, an error
Loading. Please wait.

Damaged bass

16 views 1 this week
no commentswrite comment
1 2 3 4 5
3 more votes to show rating
add to favorites
×
Save as Personal and add changes to this tab that will be seen only by you. Learn more ›
×
You can save this tab as Personal to edit and correct it or add notes. All changes will be seen only by you. Learn more »
launch autoscroll
font size
0
reset
guitar tuner
edit
Autoscroll
slow
fast
+/-
esc
set tempo
stop
Sevendust: Damaged                      Tuning Half Step Down

Guitar Intro

Verse: 2x
Gb|-----------------------------------------------------------------|
Db|-----------------------------------------------------------------|
Ab|-----------------------------------------------------------------|
Eb|-----------------------------------------------------------------|
Bb|-7-7-7-7-7-7-7-7-8-8-8-8-8-8-8-8-8-8-8-8-8-8-8-8-8-8-8-8-8-8-8-8-|

Gb|-----------------------------------------------------------------|
Db|-----------------------------------------------------------------|
Ab|-----------------------------------------------------------------|
Eb|-----------------------------------------------------------------|
Bb|-2-2-2-2-2-2-2-2-3-3-3-3-3-3-3-3-3-3-3-3-3-3-3-3-3-3-3-3-3-3-3-3-|

Gb|-----------------------------------------------------------------|
Db|-----------------------------------------------------------------|
Ab|-----------------------------------------------------------------|
Eb|-----------------------------------------------------------------|
Bb|-7-7-7-7-7-7-7-7-8-8-8-8-8-8-8-8-8-8-8-8-8-8-8-8-8-8-8-8-8-8-8-8-|

Gb|-----------------------------------------------------------------|
Db|-----------------------------------------------------------------|
Ab|-----------------------------------------------------------------|
Eb|-----------------------------------------------------------------|
Bb|-2-2-2-2-2-2-2-2-1-1-1-1-1-1-1-1-1-1-1-1-1-1-1-1-1-1-1-1-1-1-1-1-|

Pre-Chorus
Gb|------------------------|
Db|------------------------|
Ab|------------------------|3x
Eb|------------------------| 
Bb|-1-1-1-1---1-1-1-1------|

Chorus: 2x
Gb|----------------------------------------------|
Db|----------------------------------------------|
Ab|----------------------------------------------| 
Eb|----------------------------------------------| 
Bb|-0---0---0---0-3---3---3---3---3---3---3---3--|

Gb|----------------------------------------------|
Db|----------------------------------------------|
Ab|----------------------------------------------| 
Eb|-5---5---5---5---5--5--3---3---3---3---3--3---| 
Bb|----------------------------------------------|

Pause

Verse 2: 
Gb|-----------------------------------------------------------------|
Db|-----------------------------------------------------------------|
Ab|-----------------------------------------------------------------|2x
Eb|-----------------------------------------------------------------|
Bb|-12\-------------------------------------------------------------|

Gb|-----------------------------------------------------------------|
Db|-----------------------------------------------------------------|
Ab|-----------------------------------------------------------------|
Eb|-----------------------------------------------------------------|
Bb|-7-7-7-7-7-7-7-7-8-8-8-8-8-8-8-8-8-8-8-8-8-8-8-8-8-8-8-8-8-8-8-8-|

Gb|-----------------------------------------------------------------|
Db|-----------------------------------------------------------------|
Ab|-----------------------------------------------------------------|
Eb|-----------------------------------------------------------------|
Bb|-2-2-2-2-2-2-2-2-3-3-3-3-3-3-3-3-3-3-3-3-3-3-3-3-3-3-3-3-3-3-3-3-|

Gb|-----------------------------------------------------------------|
Db|-----------------------------------------------------------------|
Ab|-----------------------------------------------------------------|
Eb|-----------------------------------------------------------------|
Bb|-7-7-7-7-7-7-7-7-8-8-8-8-8-8-8-8-8-8-8-8-8-8-8-8-8-8-8-8-8-8-8-8-|

Gb|-----------------------------------------------------------------|
Db|-----------------------------------------------------------------|
Ab|-----------------------------------------------------------------|
Eb|-----------------------------------------------------------------|
Bb|-2-2-2-2-2-2-2-2-1-1-1-1-1-1-1-1-1-1-1-1-1-1-1-1-1-1-1-1-1-1-1-1-|

Pre-Chorus
Gb|------------------------|
Db|------------------------|
Ab|------------------------|3x
Eb|------------------------| 
Bb|-1-1-1-1---1-1-1-1------|

Chorus 2: 
Gb|----------------------------------------------|
Db|----------------------------------------------|
Ab|----------------------------------------------| 
Eb|----------------------------------------------| 
Bb|-0---0---0---0-3---3---3---3---3---3---3---3--|

Gb|----------------------------------------------|
Db|----------------------------------------------|
Ab|----------------------------------------------| 
Eb|-5---5---5---5---5--5--3---3---3---3---3--3---| 
Bb|----------------------------------------------|

Gb|----------------------------------------------|
Db|----------------------------------------------|
Ab|----------------------------------------------| 
Eb|----------------------------------------------| 
Bb|-0---0---0---0-3---3---3---3---3---3---3---3--|

Gb|----------------------------------------------|
Db|----------------------------------------------|
Ab|----------------------------------------------| 
Eb|-5---5---5---5---7--7--3---3---3---3---3--3---| 
Bb|----------------------------------------------|

Gb|----------------------------------------------|
Db|----------------------------------------------|
Ab|----------------------------------------------| 
Eb|----------------------------------------------| 
Bb|-0---0---0---0-3---3---3---3---3---3---3---3--|

Gb|----------------------------------------------|
Db|----------------------------------------------|
Ab|----------------------------------------------| 
Eb|-5---5---5---5---5--5--3---3---3---3---3--3---| 
Bb|----------------------------------------------|

Gb|----------------------------------------------|
Db|----------------------------------------------|
Ab|----------------------------------------------| 
Eb|----------------------------------------------| 
Bb|-0---0---0---0-3---3---3---3---3---3---3---3--|

Gb|----------------------------------------------|
Db|----------------------------------------------|
Ab|----------------------------------------------| 
Eb|-5---5---5---5---5--5--3---3---3---3---3--3---| 
Bb|----------------------------------------------|

Bridge
Gb|-----------------------------------------------------------------|
Db|-----------------------------------------------------------------| 
Ab|-----------------------------------------------------------------|
Eb|-2-2-2-2-2-2-2-2-2-2-2-2-2-2-2-2-2-2-2-2-2-2-2-2-2-2-2-2-2-2-2-2-|
Bb|-----------------------------------------------------------------|

Gb|-----------------------------------------------------------------|
Db|-----------------------------------------------------------------| 
Ab|-----------------------------------------------------------------|
Eb|-0-0-0-0-0-0-0-0-0-0-0-0-0-0-0-0---------------------------------|
Bb|---------------------------------3-3-3-3-3-3-3-3-3-3-3-3-3-3-3-3-|

Gb|-----------------------------------------------------------------|
Db|-----------------------------------------------------------------| 
Ab|-----------------------------------------------------------------|
Eb|-2-2-2-2-2-2-2-2-2-2-2-2-2-2-2-2-2-2-2-2-2-2-2-2-2-2-2-2-2-2-2-2-|
Bb|-----------------------------------------------------------------|

Gb|-----------------------------------------------------------------|
Db|-----------------------------------------------------------------| 
Ab|-----------------------------------------------------------------|
Eb|-0-0-0-0-0-0-0-0-0-0-0-0-0-0-0-0---------------------------------|
Bb|---------------------------------3-3-3-3-3-3-3-3-3-3-3-3-3-3-3-3-|

Gb|-----------------------------------------------------------------|
Db|-----------------------------------------------------------------| 
Ab|-----------------------------------------------------------------|
Eb|-2-2-2-2-2-2-2-2-2-2-2-2-2-2-2-2-2-2-2-2-2-2-2-2-2-2-2-2-2-2-2-2-|
Bb|-----------------------------------------------------------------|

Gb|-----------------------------------------------------------------|
Db|-----------------------------------------------------------------| 
Ab|-----------------------------------------------------------------|
Eb|-0-0-0-0-0-0-0-0-0-0-0-0-0-0-0-0---------------------------------|
Bb|---------------------------------4-4-4-4-4-4-4-4-3~--------------|

Gb|-------------------------|
Db|-------------------------| 
Ab|-------------------------|8x
Eb|-------------------------|
Bb|-0~--0--0---0---0-0-0-0--|

Final Chorus: 
Gb|----------------------------------------------|
Db|----------------------------------------------|
Ab|----------------------------------------------| 
Eb|----------------------------------------------| 
Bb|-0---0---0---0-3---3---3---3---3---3---3---3--|

Gb|----------------------------------------------|
Db|----------------------------------------------|
Ab|----------------------------------------------| 
Eb|-5---5---5---5---5--5--3---3---3---3---3--3---| 
Bb|----------------------------------------------|

Gb|----------------------------------------------|
Db|----------------------------------------------|
Ab|----------------------------------------------| 
Eb|----------------------------------------------| 
Bb|-0---0---0---0-3---3---3---3---3---3---3---3--|

Gb|----------------------------------------------|
Db|----------------------------------------------|
Ab|----------------------------------------------| 
Eb|-5---5---5---5---7--7--3---3---3---3---3--3---| 
Bb|----------------------------------------------|

Gb|----------------------------------------------|
Db|----------------------------------------------|
Ab|----------------------------------------------| 
Eb|----------------------------------------------| 
Bb|-0---0---0---0-3---3---3---3---3---3---3---3--|

Gb|----------------------------------------------|
Db|----------------------------------------------|
Ab|----------------------------------------------| 
Eb|-5---5---5---5---5--5--3---3---3---3---3--3---| 
Bb|----------------------------------------------|

Gb|----------------------------------------------|
Db|----------------------------------------------|
Ab|----------------------------------------------| 
Eb|----------------------------------------------| 
Bb|-0---0---0---0-3---3---3---3---3---3---3---3--|

Gb|----------------------------------------------|
Db|----------------------------------------------|
Ab|----------------------------------------------| 
Eb|-5---5---5---5---5--5--3---3---3---3---3--3---| 
Bb|----------------------------------------------|

Gb|----------------------------------------------|
Db|----------------------------------------------|
Ab|----------------------------------------------| 
Eb|----------------------------------------------| 
Bb|-0---0---0---0-3---3---3---3---3---3---3---3--|

Gb|----------------------------------------------|
Db|----------------------------------------------|
Ab|----------------------------------------------| 
Eb|-5---5---5---5---5--5--3---3---3---3---3--3---| 
Bb|----------------------------------------------|

Gb|----------------------------------------------|
Db|----------------------------------------------|
Ab|----------------------------------------------| 
Eb|----------------------------------------------| 
Bb|-0---0---0---0-3---3---3---3---3---3---3---3--|

Gb|--------------------------------------------------------------------|
Db|--------------------------------------------------------------------|
Ab|--------------------------------------------------------------------| 
Eb|-5---5---5---5---5--5--3---3---3---3---3--3-------------------------| 
Bb|---------------------------------------------0~---------------------|





            
            
Suggest correction
Creating personal tab
Creating personal tab
You can edit any tab online and save it as your Personal.

You can edit, replace or remove any tab part or add personal notes – all changes will be seen only by you.

Personal tabs can be accessed anytime from any device, even offline.
Learn more »
Give kudos to tab author, rate the tab!
1 2 3 4 5
comments
print report bad tab
guest
You may want to rate the tab now too:
select rating
Wanna post a correction for this tab? Suggest correction