Oops, an error
Loading. Please wait.

Driven Bass Tab

16 views 3 this week
no commentswrite comment
1 2 3 4 5
3 more votes to show rating
add to favorites
launch autoscroll
font size
0
reset
guitar tuner
Autoscroll
slow
fast
+/-
esc
set tempo
stop
Help us to improve Ultimate-Guitar.com Take our survey!
×
Author
Difficulty
Tuning
novice
C# G# C# F# A# D#
Sevendust: Driven                               Drop C# Tuning

Guitar Intro

Verse
|-------|
|-------|
|-0-3-0-|
|-------|

|--------------------------------|
|--------------------------------|
|-1p0--------------1p0-----0-3-0-|4x
|-----1~-0-0-0-0-0-----1~--------|

|--------------------------------|
|--------------------------------|
|-1p0--------------1p0-----------|4x
|-----1~-0~-0~-0~------1~--0-0-0-|

Chorus
|-----------------------------------------------------------------|
|-----------------------------------------------------------------|
|-----------------------------------------------------------------|
|-0-0-0-0-0-0-0-0-0-0-0-0-0-0-0-0-0-0-0-0-0-0-0-0-0-0-0-0-0-0-0-0-|

|-----------------------------------------------------------------|
|-----------------------------------------------------------------|
|-----------------------------------------------------------------|
|-8-8-8-8-8-8-8-8-8-8-8-8-8-8-8-8-5-5-5-5-5-5-5-5-5-5-5-5-5-5-5-5-|

|-----------------------------------------------------------------|
|-----------------------------------------------------------------|
|-----------------------------------------------------------------|
|-0-0-0-0-0-0-0-0-0-0-0-0-0-0-0-0-0-0-0-0-0-0-0-0-0-0-0-0-0-0-0-0-|

|-----------------------------------------------------------------|
|-----------------------------------------------------------------|
|-----------------------------------------------------------------|
|-8-8-8-8-8-8-8-8-8-8-8-8-8-10-8\-5-5-5-5-5-5-5-5-5-5-5-5-5-5-5-5-|

Post-Chorus
|--------------------------------|
|--------------------------------|
|-1p0--------------1p0-----------|3x
|-----1~-0~-0~-0~------1~--0-0-0-|

|--------------------------------|
|--------------------------------|
|-1p0--------------1p0-----0-3-0-|
|-----1~-0-0-0-0-0-----1~--------|

Rest

Verse
|-------|
|-------|
|-0-3-0-|
|-------|

|--------------------------------|
|--------------------------------|
|-1p0--------------1p0-----0-3-0-|4x
|-----1~-0-0-0-0-0-----1~--------|

|--------------------------------|
|--------------------------------|
|-1p0--------------1p0-----------|4x
|-----1~-0~-0~-0~------1~--0-0-0-|

Chorus 2:
|-----------------------------------------------------------------|
|-----------------------------------------------------------------|
|-----------------------------------------------------------------|
|-0-0-0-0-0-0-0-0-0-0-0-0-0-0-0-0-0-0-0-0-0-0-0-0-0-0-0-0-0-0-0-0-|

|-----------------------------------------------------------------|
|-----------------------------------------------------------------|
|-----------------------------------------------------------------|
|-8-8-8-8-8-8-8-8-8-8-8-8-8-8-8-8-5-5-5-5-5-5-5-5-5-5-5-5-5-5-5-5-|

|------------------------------------------------------------------------|
|------------------------------------------------------------------------|
|---------------------------------12-12-12-12-12-12-12-12-10-10-10-10-8\-|
|-0-0-0-0-0-0-0-0-0-0-0-0-0-0-0-0----------------------------------------|

|-----------------------------------------------------------------|
|-----------------------------------------------------------------|
|-----------------------------------------------------------------|
|-8-8-8-8-8-8-8-8-8-8-8-8-8-10-8\-5-5-5-5-5-5-5-5-5-5-5-5-5-5-5-5-|

Rest

Bridge
|--------------------------------------------------|
|--------------------------------------------------|
|------------------------------------5-6-5---------|6x
|-0~--0-0~--0-0~--0-0~--0-0~--0-0~-0-------6-5-3-5-|

|------------------------|
|------------------------|
|------------------------|4x
|-0-0~--0-0~--0-0~--0-0~-|

|----------------------------|
|-----------------3----------|
|-------------3-5------------|
|-0-0~--0-0~---------x-x-x-x-|

Final Chorus:
|-----------------------------------------------------------------|
|-----------------------------------------------------------------|
|-----------------------------------------------------------------|
|-0-0-0-0-0-0-0-0-0-0-0-0-0-0-0-0-0-0-0-0-0-0-0-0-0-0-0-0-0-0-0-0-|

|-----------------------------------------------------------------|
|-----------------------------------------------------------------|
|-----------------------------------------------------------------|
|-8-8-8-8-8-8-8-8-8-8-8-8-8-8-8-8-5-5-5-5-5-5-5-5-5-5-5-5-5-5-5-5-|

|-----------------------------------------------------------------|
|-----------------------------------------------------------------|
|-----------------------------------------------------------------|
|-0-0-0-0-0-0-0-0-0-0-0-0-0-0-0-0-0-0-0-0-0-0-0-0-0-0-0-0-0-0-0-0-|

|-----------------------------------------------------------------|
|-----------------------------------------------------------------|
|-----------------------------------------------------------------|
|-8-8-8-8-8-8-8-8-8-8-8-8-8-8-8-8-5-5-5-5-5-5-5-5-5-5-5-5-5-7-5\--|

|-----------------------------------------------------------------|
|-----------------------------------------------------------------|
|-----------------------------------------------------------------|
|-0-0-0-0-0-0-0-0-0-0-0-0-0-0-0-0-0-0-0-0-0-0-0-0-0-0-0-0-0-0-0-0-|

|-----------------------------------------------------------------|
|-----------------------------------------------------------------|
|-----------------------------------------------------------------|
|-8-8-8-8-8-8-8-8-8-8-8-8-8-8-8-8-5-5-5-5-5-5-5-5-5-5-5-5-5-5-5-5-|

|------------------------------------------------------------------------|
|------------------------------------------------------------------------|
|---------------------------------12-12-12-12-12-12-12-12-10-10-10-10-8\-|
|-0-0-0-0-0-0-0-0-0-0-0-0-0-0-0-0----------------------------------------|

|-----------------------------------------------------------------|
|-----------------------------------------------------------------|
|-----------------------------------------------------------------|
|-8-8-8-8-8-8-8-8-8-8-8-8-8-10-8\-5-5-5-5-5-5-5-5-5-5-5-5-5-5-5-5-|

Outro:
|--------------------------------|
|--------------------------------|
|-1p0--------------1p0-----------|3x
|-----1~-0-0-0-0-0-----1~--0-0-0-|

|--------------------------------|
|--------------------------------|
|-1p0--------------1p0-----0-3-0-|5x
|-----1~-0-0-0-0-0-----1~--------|

|--------------|
|--------------|
|-1p0----------|
|-----1~-0-0---|





Suggest correction
Give kudos to tab author, rate the tab!
1 2 3 4 5
comments
print report bad tab
guest
You may want to rate the tab now too:
select rating
Wanna post a correction for this tab? Suggest correction