Oops, an error
Loading. Please wait.

Driven tab

version 1
version 1

Whole song

2,236 views 3 this week
4 commentsread comments
1 2 3 4 5
x 7
add to favorites
×
Save as Personal and add changes to this tab that will be seen only by you. Learn more ›
×
You can save this tab as Personal to edit and correct it or add notes. All changes will be seen only by you. Learn more »
launch autoscroll
font size
0
reset
how to read this tab
guitar tuner
edit
Autoscroll
slow
fast
+/-
esc
set tempo
stop
Band - Sevendust
Song - Driven
Album - Alpha (2007)
Tuning - Db,Ab,Db,Gb,Bb,Eb (This is the right tuning)

Notes: Sorry guys, this is my version 2 of this song, my first version was in Drop B I 
figured out that this song was tuned higher and this is the way Sevendust play this song. 
also use this tuning on Aggression and Beg To Differ and Black. Enjoy!

Intro - Guitar 1 - Wah open
|-------------------------------|
|-------------------------------|
|-------------------------------|
|-------------------------------|
|-1----------------1------------|
|---3-1b-0-0-0-0-0---3-1b-0-0-0-|
         . . . . .        . . .

Verse
|-----------------------------------------------------------------|
|-----------------------------------------------------------------|
|-----------------------------------------------------------------|
|-----------------------------------------------------------------|
|-0h2h3p0-1------0-0-0-0-0-1------0h2h3p0-1------0-0-0-0-0-1------|
|-----------3-1b-0-0-0-0-0---3-1b-----------3-1b-0-0-0-0-0---3-1b-|
                 . . . . .                       . . . . .

Verse Variation
|-------------------------------------------------------|
|-------------------------------------------------------|
|-------------------------------------------------------|
|-------------------------------------------------------|
|-1------0-0--0-1------0-0-0-1------0-0--0-1------0-0-0-|
|---3-1b-0-0--0---3-1b-0-0-0---3-1b-0-0--0---3-1b-0-0-0-|
         . .  .        . . .        . .  .        . . .

Chorus
|--------------------------------------------------|
|--------------------------------------------------|
|-5/-77777777/1111111111111111\7/-1212121212121212-|
|-x--xxxxxxxx-x-x-x-x-x-x-x-x--x--x-x-x-x-x-x-x-x--|
|-3/-55555555/9-9-9-9-9-9-9-9\-5/-1010101010101010-|
|--------------------------------------------------|

|-------------------------------|
|-------------------------------|
|-10-10-10-10-10-10-7-7-7-7-7-7-|
|-8--8--8--8--8--8--5-7-7-7-7-7-|
|-8--8--8--8--8--8--5-5-5-5-5-5-|
|-8--8--8--8--8--8--5-5-5-5-5-5-|

Bridge
|--------------------------------------------|
|--------------------------------------------|
|--------------------------------------------|
|-----------------0~----------------------0~-|
|-3h5-6p5---------0~------3h5-6p5---------0~-|
|---------6p5-3h5-0~--------------6p5-3h5-0~-|

|-----------------------------------------------|
|-----------------------------------------------|
|-----------------------------------------------|
|-0-----------------1---------------------------|
|-0--0-0--0-0--0-0--1-0-0--0-0--3h5-6p5---------|
|-0--0-0--0-0--0-0--1-0-0--0-0----------6p5-3h5-|
     . .  . .  . .    . .  . .

Solo Backing - All palm muted
|----------------------------|
|----------------------------|
|----------------------------|
|----------------------------|
|-0-0-0--0-0-0--0-0-0--0-0-0-|
|-0-0-0--0-0-0--0-0-0--0-0-0-|

Solo w/ wah
|---------------------|
|---------------------|
|-5/-7777777777777777-|
|-x--xxxxxxxxxxxxxxxx-|  2x
|-3/-5555555555555555-|
|---------------------|

|---------------------|
|---------------------|
|-5/-1111111111111111-|
|-x--x-x-x-x-x-x-x-x--|
|-3/-9-9-9-9-9-9-9-9--|
|---------------------|

|---------------------|
|---------------------|
|-5/-1212121212121212-|
|-x--x-x-x-x-x-x-x-x--|
|-3/-1010101010101010-|
|---------------------|

Play Chorus

Play Verse until end

Thanks goes to the user who left me those comments on my other Sevendust tab, I don't 
your username but you know who you are:)

            
            
Suggest correction
Creating personal tab
Creating personal tab
You can edit any tab online and save it as your Personal.

You can edit, replace or remove any tab part or add personal notes – all changes will be seen only by you.

Personal tabs can be accessed anytime from any device, even offline.
Learn more »
comments
print report bad tab
4 comments total. Showing first comments.
0 reply
CmS 62 Mar 29, 2007 07:38 PM

Its on the right track, but some of the notes are wrong, mainly in the intro and verse. Ill put the correction in the comments when i get time

0 reply
davride 10 May 18, 2007 03:13 AM

thanks a lot for the tabs i never try to do it but i can play with yours!!!
thanks a lot man!

0 reply
THEguitarGOD789 10 Apr 14, 2008 12:16 PM

your right. this sounds a lot more correct in Db,Ab,Db,Gb,Bb,Eb tuning. and it's a lot easier to de-tune to Db,Ab,Db,Gb,Bb,Eb then drop B

guest
You may want to rate the tab now too:
select rating
Wanna post a correction for this tab? Suggest correction