Oops, an error
Loading. Please wait.

Home tab

version 2
version 2

Whole song

Interactive

652 views 1 this week
no commentswrite comment
1 2 3 4 5
2 more votes to show rating
add to favorites
×
Save as Personal and add changes to this tab that will be seen only by you. Learn more ›
×
You can save this tab as Personal to edit and correct it or add notes. All changes will be seen only by you. Learn more »
launch autoscroll
font size
0
reset
how to read this tab
guitar tuner
edit
Autoscroll
slow
fast
+/-
esc
set tempo
stop
Sevendust: Home

Transcribed by: Andrew Zara (disturbedfreak0520@yahoo.com)

Date last modified: June 11, 2007

PLEASE DO NOT COPY THIS TAB TO ANOTHER SITE
WITHOUT AUTHORS' PERMISSION. THANK YOU.

Tuning: Drop G# (G#,G#,C#,F#,A#,D#)

Clint Lowery

 T T E  S T T E  S H           T T E  S T T E  S H         
D#||-----------------------------|-----------------------------|
A#||-----------------------------|-----------------------------|
F#||-----------------------------|-----------------------------|
C#||-----------------------------|-----------------------------|
G#||-----------------------------|-----------------------------|
G#||--0-0-0--0-0-0-0-------------|--0-0-0--0-0-0-0-------------|


  T T E  S T T E  S H           T T E  S T T E  S H         
-----------------------------|-----------------------------|
-----------------------------|-----------------------------|
-----------------------------|-----------------------------|
-----------------------------|-----------------------------|
-----------------------------|-----------------------------|
--0-0-0--0-0-0-0-------------|--0-0-0--0-0-0-0-------------|


  T T E  S T T E  S S S S S S S E     T T E  S T T E  S S S S S S S E   
-----------------------------------|-----------------------------------|
-----------------------------------|-----------------------------------|
-----------------------------------|-----------------------------------|
-----------------------------------|-----------------------------------|
-----------------------------------|-----------------------------------|
--0-0-0--0-0-0-0--0-L-0-0-0-L-0-0--|--0-0-0--0-0-0-0--0-L-0-0-0-L-0-0--|


  T T E  S T T E  S S S S S S S E     T T E  S T T E  S S S S S S S E   
-----------------------------------|-----------------------------------|
-----------------------------------|-----------------------------------|
-----------------------------------|-----------------------------------|
-----------------------------------|-----------------------------------|
-----------------------------------|-----------------------------------|
--0-0-0--0-0-0-0--0-L-0-0-0-L-0-0--|--0-0-0--0-0-0-0--0-L-0-0-0-L-0-0--|


  T T E  S T T E  S S S S S S S E     T T E  S T T E  S S S S S S S E   
-----------------------------------|-----------------------------------|
-----------------------------------|-----------------------------------|
-----------------------------------|-----------------------------------|
-----------------------------------|-----------------------------------|
-----------------------------------|-----------------------------------|
--0-0-0--0-0-0-0--0-L-0-0-0-L-0-0--|--0-0-0--0-0-0-0--0-L-0-0-0-L-0-0--|


  T T E  S T T E  S S S S S S S E     T T E  S T T E  S S S S S S S E   
-----------------------------------|-----------------------------------|
-----------------------------------|-----------------------------------|
-----------------------------------|-----------------------------------|
-----------------------------------|-----------------------------------|
-----------------------------------|-----------------------------------|
--0-0-0--0-0-0-0--0-L-0-0-0-L-0-0--|--0-0-0--0-0-0-0--0-L-0-0-0-L-0-0--|


  B1                                                   End B1  
  Q    Q    S S S S S S S S    Q    Q    S S S S S S S S       
----------------------------|---------------------------------|
----------------------------|---------------------------------|
--5----5----5-5-5-5-L-5-5-5-|--5----5-------------------------|
----------------------------|---------------------------------|
--3----4--------------------|--3----4----4-4-4-4-L-4-4-4------|
----------------------------|---------------------------------|


  B1                                                   End B1  
  Q    Q    S S S S S S S S    Q    Q    S S S S S S S S       
----------------------------|---------------------------------|
----------------------------|---------------------------------|
--5----5----5-5-5-5-L-5-5-5-|--5----5-------------------------|
----------------------------|---------------------------------|
--3----4--------------------|--3----4----4-4-4-4-L-4-4-4------|
----------------------------|---------------------------------|


  B1                                                   End B1  
  Q    Q    S S S S S S S S    Q    Q    S S S S S S S S       
----------------------------|---------------------------------|
----------------------------|---------------------------------|
--5----5----5-5-5-5-L-5-5-5-|--5----5-------------------------|
----------------------------|---------------------------------|
--3----4--------------------|--3----4----4-4-4-4-L-4-4-4------|
----------------------------|---------------------------------|


  B1                                                    
  Q    Q    S S S S S S S S    Q    Q    S S S S S E.   
----------------------------|--------------------------|
----------------------------|--------------------------|
--5----5----5-5-5-5-L-5-5-5-|--5----5------------------|
----------------------------|--------------------------|
--3----4--------------------|--3----4------------------|
----------------------------|------------0-0-0-0-L-----|


  C                                            End C     
  S S E  S S E  S S E  S S E     S S E  S S E  H         
------------------------------|-------------------------|
------------------------------|-------------------------|
------------------------------|-------------------------|
------------------------------|-------------------------|
------------------------------|-------------------------|
----0-0--0-0------0-0--0-0----|----0-0--0-0-------------|


                                               End C           
  S S E  S S E  S S E  S S E     S S E  S S E  E     E  E  E   
------------------------------|-------------------------------|
------------------------------|-------------------------------|
------------------------------|----------------6-----6--8--8--|
------------------------------|-------------------------7--7--|
------------------------------|-------------------------------|
----0-0--0-0------0-0--0-0----|----0-0--0-0-------------------|


  T T E  S T T E  S S S S S S S E     T T E  S T T E  S S S S S S S E   
-----------------------------------|-----------------------------------|
-----------------------------------|-----------------------------------|
-----------------------------------|-----------------------------------|
-----------------------------------|-----------------------------------|
-----------------------------------|-----------------------------------|
--0-0-0--0-0-0-0--0-L-0-0-0-L-0-0--|--0-0-0--0-0-0-0--0-L-0-0-0-L-0-0--|


  T T E  S T T E  S S S S S S S E     T T E  S T T E  S S S S S S S E   
-----------------------------------|-----------------------------------|
-----------------------------------|-----------------------------------|
-----------------------------------|-----------------------------------|
-----------------------------------|-----------------------------------|
-----------------------------------|-----------------------------------|
--0-0-0--0-0-0-0--0-L-0-0-0-L-0-0--|--0-0-0--0-0-0-0--0-L-0-0-0-L-0-0--|


                                      B1                         
  T T E  S T T E  S S S S S S S E     Q    Q    S S S S S S S S  
-----------------------------------|----------------------------|
-----------------------------------|----------------------------|
-----------------------------------|--5----5----5-5-5-5-L-5-5-5-|
-----------------------------------|----------------------------|
-----------------------------------|--3----4--------------------|
--0-0-0--0-0-0-0--0-L-0-0-0-L-0-0--|----------------------------|


                          End B1    B1                         
  Q    Q    S S S S S S S S         Q    Q    S S S S S S S S  
---------------------------------|----------------------------|
---------------------------------|----------------------------|
--5----5-------------------------|--5----5----5-5-5-5-L-5-5-5-|
---------------------------------|----------------------------|
--3----4----4-4-4-4-L-4-4-4------|--3----4--------------------|
---------------------------------|----------------------------|


                          End B1    B1                         
  Q    Q    S S S S S S S S         Q    Q    S S S S S S S S  
---------------------------------|----------------------------|
---------------------------------|----------------------------|
--5----5-------------------------|--5----5----5-5-5-5-L-5-5-5-|
---------------------------------|----------------------------|
--3----4----4-4-4-4-L-4-4-4------|--3----4--------------------|
---------------------------------|----------------------------|


                          End B1    B1                         
  Q    Q    S S S S S S S S         Q    Q    S S S S S S S S  
---------------------------------|----------------------------|
---------------------------------|----------------------------|
--5----5-------------------------|--5----5----5-5-5-5-L-5-5-5-|
---------------------------------|----------------------------|
--3----4----4-4-4-4-L-4-4-4------|--3----4--------------------|
---------------------------------|----------------------------|


                             C                            
  Q    Q    S S S S S E.     S S E  S S E  S S E  S S E   
--------------------------|------------------------------|
--------------------------|------------------------------|
--5----5------------------|------------------------------|
--------------------------|------------------------------|
--3----4------------------|------------------------------|
------------0-0-0-0-L-----|----0-0--0-0------0-0--0-0----|


                End C                                    
  S S E  S S E  H           S S E  S S E  S S E  S S E   
-------------------------|------------------------------|
-------------------------|------------------------------|
-------------------------|------------------------------|
-------------------------|------------------------------|
-------------------------|------------------------------|
----0-0--0-0-------------|----0-0--0-0------0-0--0-0----|


                End C                                               
  S S E  S S E  E     E  E  E     T T E  S T T E  S S S S S S S E   
-------------------------------|-----------------------------------|
-------------------------------|-----------------------------------|
----------------6-----6--6--6--|-----------------------------------|
-------------------------------|-----------------------------------|
-------------------------------|-----------------------------------|
----0-0--0-0-------------------|--0-0-0--0-0-0-0--0-L-0-0-0-L-0-0--|


  T T E  S T T E  S S S S S S S E     T T E  S T T E  S S S S S S S E   
-----------------------------------|-----------------------------------|
-----------------------------------|-----------------------------------|
-----------------------------------|-----------------------------------|
-----------------------------------|-----------------------------------|
-----------------------------------|-----------------------------------|
--0-0-0--0-0-0-0--0-L-0-0-0-L-0-0--|--0-0-0--0-0-0-0--0-L-0-0-0-L-0-0--|


  T T E  S T T E  S S S S S S S E     T T E  S T T E  S S S S S S S E   
-----------------------------------|-----------------------------------|
-----------------------------------|-----------------------------------|
-----------------------------------|-----------------------------------|
-----------------------------------|-----------------------------------|
-----------------------------------|-----------------------------------|
--0-0-0--0-0-0-0--0-L-0-0-0-L-0-0--|--0-0-0--0-0-0-0--0-L-0-0-0-L-0-0--|


  T T E  S T T E  S S S S S S S E     T T E  S T T E  S S S S S S S E   
-----------------------------------|-----------------------------------|
-----------------------------------|-----------------------------------|
-----------------------------------|-----------------------------------|
-----------------------------------|-----------------------------------|
-----------------------------------|-----------------------------------|
--0-0-0--0-0-0-0--0-L-0-0-0-L-0-0--|--0-0-0--0-0-0-0--0-L-0-0-0-L-0-0--|


  T T E  S T T E  S S S S S S S E     S S E  Q    S  E.  S S E   
-----------------------------------|----------------------------|
-----------------------------------|----------------------------|
-----------------------------------|--------------8S-7----------|
-----------------------------------|----------------------------|
-----------------------------------|--------------6S-5----------|
--0-0-0--0-0-0-0--0-L-0-0-0-L-0-0--|--0-0-0--------------0-0-0--|


  S  E.  S S E  S S E  Q       S  E.  S S E  S  E.  S S E   
----------------------------|------------------------------|
----------------------------|------------------------------|
--8S-7----------------------|--8S-7----------8S-7----------|
----------------------------|------------------------------|
--6S-5----------------------|--6S-5----------6S-5----------|
---------0-0-0--0-0-0-------|---------0-0-0---------0-0-0--|


  S S E  Q    Q    S S E     S  E.  S S E  S S E  Q     
--------------5-----------|----------------------------|
--------------6-----------|----------------------------|
--------------7-----------|--8S-7----------------------|
--------------------------|----------------------------|
--------------------------|--6S-5----------------------|
--0-0-0------------0-0-0--|---------0-0-0--0-0-0-------|


  S  E.  S S E  S  E.  S S E     T T E  S T T E  S S S S S S S E   
------------------------------|-----------------------------------|
------------------------------|-----------------------------------|
--8S-7----------8S-7----------|-----------------------------------|
------------------------------|-----------------------------------|
--6S-5----------6S-5----------|-----------------------------------|
---------0-0-0---------0-0-0--|--0-0-0--0-0-0-0--0-L-0-0-0-L-0-0--|


                                      B1                         
  T T E  S T T E  S S S S S S S E     Q    Q    S S S S S S S S  
-----------------------------------|----------------------------|
-----------------------------------|----------------------------|
-----------------------------------|--5----5----5-5-5-5-L-5-5-5-|
-----------------------------------|----------------------------|
-----------------------------------|--3----4--------------------|
--0-0-0--0-0-0-0--0-L-0-0-0-L-0-0--|----------------------------|


                          End B1    B1                         
  Q    Q    S S S S S S S S         Q    Q    S S S S S S S S  
---------------------------------|----------------------------|
---------------------------------|----------------------------|
--5----5-------------------------|--5----5----5-5-5-5-L-5-5-5-|
---------------------------------|----------------------------|
--3----4----4-4-4-4-L-4-4-4------|--3----4--------------------|
---------------------------------|----------------------------|


                             C                            
  Q    Q    S S S S S E.     S S E  S S E  S S E  S S E   
--------------------------|------------------------------|
--------------------------|------------------------------|
--5----5------------------|------------------------------|
--------------------------|------------------------------|
--3----4------------------|------------------------------|
------------0-0-0-0-L-----|----0-0--0-0------0-0--0-0----|


                End C       C                            
  S S E  S S E  H           S S E  S S E  S S E  S S E   
-------------------------|------------------------------|
-------------------------|------------------------------|
-------------------------|------------------------------|
-------------------------|------------------------------|
-------------------------|------------------------------|
----0-0--0-0-------------|----0-0--0-0------0-0--0-0----|


                End C                                      
  S S E  S S E  H           S S E  S S S S S S E  S S S S  
-------------------------|--------------------------------|
-------------------------|--------------------------------|
-------------------------|--------------------------------|
-------------------------|--------------------------------|
-------------------------|-------------3-3-3----------3-3-|
----0-0--0-0-------------|----0-0--0-0-------0-0--0-0-----|


  S S E  S S E  H           S S E  S S S S S S E  S S S S  
-------------------------|--------------------------------|
-------------------------|--------------------------------|
-------------------------|--------------------------------|
-------------------------|--------------------------------|
--3----------------------|-------------3-3-3----------3-3-|
----0-0--0-0-------------|----0-0--0-0-------0-0--0-0-----|


  S S E  S S E  H           T T E  S T T E  S S S S S S S E   
-------------------------|-----------------------------------|
-------------------------|-----------------------------------|
-------------------------|-----------------------------------|
-------------------------|-----------------------------------|
--3----------------------|-----------------------------------|
----0-0--0-0-------------|--0-0-0--0-0-0-0--0-L-0-0-0-L-0-0--|


  T T E  S T T E  S S S S S S S E     T T E  S T T E  S S S S S S S E   
-----------------------------------|-----------------------------------|
-----------------------------------|-----------------------------------|
-----------------------------------|-----------------------------------|
-----------------------------------|-----------------------------------|
-----------------------------------|-----------------------------------|
--0-0-0--0-0-0-0--0-L-0-0-0-L-0-0--|--0-0-0--0-0-0-0--0-L-0-0-0-L-0-0--|


  T T E  S T T E  S S S S S S S E     T T E  S T T E  S S S S S S S E   
-----------------------------------|-----------------------------------|
-----------------------------------|-----------------------------------|
-----------------------------------|-----------------------------------|
-----------------------------------|-----------------------------------|
-----------------------------------|-----------------------------------|
--0-0-0--0-0-0-0--0-L-0-0-0-L-0-0--|--0-0-0--0-0-0-0--0-L-0-0-0-L-0-0--|


  T T E  S T T E  S S S S S S S E     T T E  S T T E  S S S S S S S E   
-----------------------------------|-----------------------------------|
-----------------------------------|-----------------------------------|
-----------------------------------|-----------------------------------|
-----------------------------------|-----------------------------------|
-----------------------------------|-----------------------------------|
--0-0-0--0-0-0-0--0-L-0-0-0-L-0-0--|--0-0-0--0-0-0-0--0-L-0-0-0-L-0-0--|


  T T E  S T T E  S S S S S S S E     T T E  S T T E  S S S S S S S E   
-----------------------------------|-----------------------------------|
-----------------------------------|-----------------------------------|
-----------------------------------|-----------------------------------|
-----------------------------------|-----------------------------------|
-----------------------------------|-----------------------------------|
--0-0-0--0-0-0-0--0-L-0-0-0-L-0-0--|--0-0-0--0-0-0-0--0-L-0-0-0-L-0-0--|


  T T E  S T T E  S S S S S S S E     S E  S T T E  S H          
-----------------------------------|---------------------------||
-----------------------------------|---------------------------||
-----------------------------------|---------------------------||
-----------------------------------|---------------------------||
-----------------------------------|---------------------------||
--0-0-0--0-0-0-0--0-L-0-0-0-L-0-0--|-------0-0-0-0-------------||

******************************************
******************************************
******************************************

John Connolly

 A                             End A                                      
      T T E  S T T E  S S S S S S S E        T T E  S T T E  S S S S S S S E   
D#||--------------------------------------|-----------------------------------|
A#||--------------------------------------|-----------------------------------|
F#||--------------------------------------|-----------------------------------|
C#||--------------------------------------|-----------------------------------|
G#||--------------------------------------|-----------------------------------|
G#||--0-0-0--0-0-0-0--0-L-0-0-0-L-0-0-----|--0-0-0--0-0-0-0--0-L-0-0-0-L-0-0--|


  T T E  S T T E  S S S S S S S E     T T E  S T T E  S S S S S S S S S  
-----------------------------------|------------------------------------|
-----------------------------------|------------------------------------|
-----------------------------------|------------------------------------|
-----------------------------------|------------------------------------|
-----------------------------------|--------------------------------0-3-|
--0-0-0--0-0-0-0--0-L-0-0-0-L-0-0--|--0-0-0--0-0-0-0--0-L-0-0-0-L-0-----|


  T T E  S T T E  S S S S S S S E     T T E  S T T E  S S S S S S S S S  
-----------------------------------|------------------------------------|
-----------------------------------|------------------------------------|
-----------------------------------|------------------------------------|
-----------------------------------|------------------------------------|
-----------------------------------|--------------------------------0-3-|
--0-0-0--0-0-0-0--0-L-0-0-0-L-0-0--|--0-0-0--0-0-0-0--0-L-0-0-0-L-0-----|


  T T E  S T T E  S S S S S S S E     T T E  S T T E  S S S S S S S E   
-----------------------------------|-----------------------------------|
-----------------------------------|-----------------------------------|
-----------------------------------|------------------------5-5---5-5--|
-----------------------------------|-----------------------------------|
-----------------------------------|------------------------3-3---3-3--|
--0-0-0--0-0-0-0--0-L-0-0-0-L-0-0--|--0-0-0--0-0-0-0--0-L-0------------|


  T T E  S T T E  S S S S S S S E     T T E  S T T E  S S S S S S S E   
-----------------------------------|-----------------------------------|
-----------------------------------|-----------------------------------|
-----------------------------------|-----------------------------------|
-----------------------------------|-----------------------------------|
-----------------------------------|-----------------------------------|
--0-0-0--0-0-0-0--0-L-0-0-0-L-0-0--|--0-0-0--0-0-0-0--0-L-0-0-0-L-0-0--|


  T T E  S T T E  S S S S S S S E     T T E  S T T E  S S S S S S S E   
-----------------------------------|-----------------------------------|
-----------------------------------|-----------------------------------|
-----------------------------------|-----------------------------------|
-----------------------------------|-----------------------------------|
-----------------------------------|-----------------------------------|
--0-0-0--0-0-0-0--0-L-0-0-0-L-0-0--|--0-0-0--0-0-0-0--0-L-0-0-0-L-0-0--|


  B                                                    End B  
  Q    Q    S S S S S S S S    Q    Q    S S S S S S S S      
----------------------------|--------------------------------|
----------------------------|--------------------------------|
--5----5--------------------|--5----5------------------------|
----------------------------|--------------------------------|
--3----4--------------------|--3----4------------------------|
------------0-0-0-0-L-0-0-0-|------------0-0-0-0-L-0-0-0-----|


  B                                                    End B  
  Q    Q    S S S S S S S S    Q    Q    S S S S S S S S      
----------------------------|--------------------------------|
----------------------------|--------------------------------|
--5----5--------------------|--5----5------------------------|
----------------------------|--------------------------------|
--3----4--------------------|--3----4------------------------|
------------0-0-0-0-L-0-0-0-|------------0-0-0-0-L-0-0-0-----|


  B                                                    End B  
  Q    Q    S S S S S S S S    Q    Q    S S S S S S S S      
----------------------------|--------------------------------|
----------------------------|--------------------------------|
--5----5--------------------|--5----5------------------------|
----------------------------|--------------------------------|
--3----4--------------------|--3----4------------------------|
------------0-0-0-0-L-0-0-0-|------------0-0-0-0-L-0-0-0-----|


  B                                                     
  Q    Q    S S S S S S S S    Q    Q    S S S S S E.   
----------------------------|--------------------------|
----------------------------|--------------------------|
--5----5--------------------|--5----5------------------|
----------------------------|--------------------------|
--3----4--------------------|--3----4------------------|
------------0-0-0-0-L-0-0-0-|------------0-0-0-0-L-----|


  C                                            End C     
  S S E  S S E  S S E  S S E     S S E  S S E  H         
------------------------------|-------------------------|
------------------------------|-------------------------|
------------------------------|-------------------------|
------------------------------|-------------------------|
------------------------------|-------------------------|
----0-0--0-0------0-0--0-0----|----0-0--0-0-------------|


                                               End C           
  S S E  S S E  S S E  S S E     S S E  S S E  E     E  E  E   
------------------------------|-------------------------------|
------------------------------|-------------------------------|
------------------------------|-------------------------------|
------------------------------|-------------------------7--7--|
------------------------------|----------------4-----4--6--6--|
----0-0--0-0------0-0--0-0----|----0-0--0-0-------------------|


  T T E  S T T E  S S S S S S S E     T T E  S T T E  S S S S S S S E   
-----------------------------------|-----------------------------------|
-----------------------------------|-----------------------------------|
-----------------------------------|-----------------------------------|
-----------------------------------|-----------------------------------|
-----------------------------------|-----------------------------------|
--0-0-0--0-0-0-0--0-L-0-0-0-L-0-0--|--0-0-0--0-0-0-0--0-L-0-0-0-L-0-0--|


  T T E  S T T E  S S S S S S S E     T T E  S T T E  S S S S S S S E   
-----------------------------------|-----------------------------------|
-----------------------------------|-----------------------------------|
-----------------------------------|-----------------------------------|
-----------------------------------|-----------------------------------|
-----------------------------------|-----------------------------------|
--0-0-0--0-0-0-0--0-L-0-0-0-L-0-0--|--0-0-0--0-0-0-0--0-L-0-0-0-L-0-0--|


                                      B                          
  T T E  S T T E  S S S S S S S E     Q    Q    S S S S S S S S  
-----------------------------------|----------------------------|
-----------------------------------|----------------------------|
-----------------------------------|--5----5--------------------|
-----------------------------------|----------------------------|
-----------------------------------|--3----4--------------------|
--0-0-0--0-0-0-0--0-L-0-0-0-L-0-0--|------------0-0-0-0-L-0-0-0-|


                          End B    B                          
  Q    Q    S S S S S S S S        Q    Q    S S S S S S S S  
--------------------------------|----------------------------|
--------------------------------|----------------------------|
--5----5------------------------|--5----5--------------------|
--------------------------------|----------------------------|
--3----4------------------------|--3----4--------------------|
------------0-0-0-0-L-0-0-0-----|------------0-0-0-0-L-0-0-0-|


                          End B    B                          
  Q    Q    S S S S S S S S        Q    Q    S S S S S S S S  
--------------------------------|----------------------------|
--------------------------------|----------------------------|
--5----5------------------------|--5----5--------------------|
--------------------------------|----------------------------|
--3----4------------------------|--3----4--------------------|
------------0-0-0-0-L-0-0-0-----|------------0-0-0-0-L-0-0-0-|


                          End B    B                          
  Q    Q    S S S S S S S S        Q    Q    S S S S S S S S  
--------------------------------|----------------------------|
--------------------------------|----------------------------|
--5----5------------------------|--5----5--------------------|
--------------------------------|----------------------------|
--3----4------------------------|--3----4--------------------|
------------0-0-0-0-L-0-0-0-----|------------0-0-0-0-L-0-0-0-|


                             C                            
  Q    Q    S S S S S E.     S S E  S S E  S S E  S S E   
--------------------------|------------------------------|
--------------------------|------------------------------|
--5----5------------------|------------------------------|
--------------------------|------------------------------|
--3----4------------------|------------------------------|
------------0-0-0-0-L-----|----0-0--0-0------0-0--0-0----|


                End C                                    
  S S E  S S E  H           S S E  S S E  S S E  S S E   
-------------------------|------------------------------|
-------------------------|------------------------------|
-------------------------|------------------------------|
-------------------------|------------------------------|
-------------------------|------------------------------|
----0-0--0-0-------------|----0-0--0-0------0-0--0-0----|


                End C                                               
  S S E  S S E  E     E  E  E     T T E  S T T E  S S S S S S S E   
-------------------------------|-----------------------------------|
-------------------------------|-----------------------------------|
-------------------------------|-----------------------------------|
-------------------------------|-----------------------------------|
----------------4-----4--4--4--|-----------------------------------|
----0-0--0-0-------------------|--0-0-0--0-0-0-0--0-L-0-0-0-L-0-0--|


  T T E  S T T E  S S S S S S S E     T T E  S T T E  S S S S S S S E   
-----------------------------------|-----------------------------------|
-----------------------------------|-----------------------------------|
-----------------------------------|-----------------------------------|
-----------------------------------|-----------------------------------|
-----------------------------------|-----------------------------------|
--0-0-0--0-0-0-0--0-L-0-0-0-L-0-0--|--0-0-0--0-0-0-0--0-L-0-0-0-L-0-0--|


  T T E  S T T E  S S S S S S S E     T T E  S T T E  S S S S S S S E   
-----------------------------------|-----------------------------------|
-----------------------------------|-----------------------------------|
-----------------------------------|-----------------------------------|
-----------------------------------|-----------------------------------|
-----------------------------------|-----------------------------------|
--0-0-0--0-0-0-0--0-L-0-0-0-L-0-0--|--0-0-0--0-0-0-0--0-L-0-0-0-L-0-0--|


  T T E  S T T E  S S S S S S S E     T T E  S T T E  S S S S S S S E   
-----------------------------------|-----------------------------------|
-----------------------------------|-----------------------------------|
-----------------------------------|-----------------------------------|
-----------------------------------|-----------------------------------|
-----------------------------------|-----------------------------------|
--0-0-0--0-0-0-0--0-L-0-0-0-L-0-0--|--0-0-0--0-0-0-0--0-L-0-0-0-L-0-0--|


  T T E  S T T E  S S S S S S S E     S S E  E.    S Q    S S E   
-----------------------------------|-----------------------------|
-----------------------------------|-----------------------------|
-----------------------------------|---------9S---10-------------|
-----------------------------------|-----------------------------|
-----------------------------------|---------7S----8-------------|
--0-0-0--0-0-0-0--0-L-0-0-0-L-0-0--|--0-0-0---------------0-0-0--|


  E.   S S S E  S S E  E.    S    Q    S S E  E.   S S S E   
-------------------------------|----------------------------|
-------------------------------|----------------------------|
--8S---9---------------9S---10-|--------------8S---9--------|
-------------------------------|----------------------------|
--6S---7---------------7S----8-|--------------6S---7--------|
---------0-0-0--0-0-0----------|-------0-0-0---------0-0-0--|


  S S E   E.    S Q    S S E     E.   S S S E  S S E   Q      
------------------------------|------------------------------|
------------------------------|------------------------------|
---------12S---13-------------|--8S---9---------------12~----|
------------------------------|-----------------------11~----|
---------10S---11-------------|--6S---7---------------10~----|
--0-0-0----------------0-0-0--|---------0-0-0--0-0-0---------|


  Q    S S E  E.   S S S E     T T E  S T T E  S S S S S S S E   
----------------------------|-----------------------------------|
----------------------------|-----------------------------------|
--------------8S---9--------|-----------------------------------|
----------------------------|-----------------------------------|
--------------6S---7--------|-----------------------------------|
-------0-0-0---------0-0-0--|--0-0-0--0-0-0-0--0-L-0-0-0-L-0-0--|


                                      B                          
  T T E  S T T E  S S S S S S S E     Q    Q    S S S S S S S S  
-----------------------------------|----------------------------|
-----------------------------------|----------------------------|
-----------------------------------|--5----5--------------------|
-----------------------------------|----------------------------|
-----------------------------------|--3----4--------------------|
--0-0-0--0-0-0-0--0-L-0-0-0-L-0-0--|------------0-0-0-0-L-0-0-0-|


                          End B    B                          
  Q    Q    S S S S S S S S        Q    Q    S S S S S S S S  
--------------------------------|----------------------------|
--------------------------------|----------------------------|
--5----5------------------------|--5----5--------------------|
--------------------------------|----------------------------|
--3----4------------------------|--3----4--------------------|
------------0-0-0-0-L-0-0-0-----|------------0-0-0-0-L-0-0-0-|


                             C                            
  Q    Q    S S S S S E.     S S E  S S E  S S E  S S E   
--------------------------|------------------------------|
--------------------------|------------------------------|
--5----5------------------|------------------------------|
--------------------------|------------------------------|
--3----4------------------|------------------------------|
------------0-0-0-0-L-----|----0-0--0-0------0-0--0-0----|


                End C       C                            
  S S E  S S E  H           S S E  S S E  S S E  S S E   
-------------------------|------------------------------|
-------------------------|------------------------------|
-------------------------|------------------------------|
-------------------------|------------------------------|
-------------------------|------------------------------|
----0-0--0-0-------------|----0-0--0-0------0-0--0-0----|


                End C       C                            
  S S E  S S E  H           S S E  S S E  S S E  S S E   
-------------------------|------------------------------|
-------------------------|------------------------------|
-------------------------|------------------------------|
-------------------------|------------------------------|
-------------------------|------------------------------|
----0-0--0-0-------------|----0-0--0-0------0-0--0-0----|


                End C                                                 
  S S E  S S E  S      S S S S  S E      S S E  S S E  S S E  S S E   
--------------------------------------|------------------------------|
--------------------------------------|------------------------------|
----------------9S----10-9-5-5S-6-5~--|--L---------------------------|
--------------------------------------|------------------------------|
----------------7S-----8-7-3-3S-4-3~--|--L---------------------------|
----0-0--0-0--------------------------|----0-0--0-0------0-0--0-0----|


  S S E  S S E  H           T T E  S T T E  S S S S S S S E   
-------------------------|-----------------------------------|
-------------------------|-----------------------------------|
-------------------------|-----------------------------------|
-------------------------|-----------------------------------|
-------------------------|-----------------------------------|
----0-0--0-0-------------|--0-0-0--0-0-0-0--0-L-0-0-0-L-0-0--|


  T T E  S T T E  S S S S S S S E     T T E  S T T E  S S S S S S S E   
-----------------------------------|-----------------------------------|
-----------------------------------|-----------------------------------|
-----------------------------------|-----------------------------------|
-----------------------------------|-----------------------------------|
-----------------------------------|-----------------------------------|
--0-0-0--0-0-0-0--0-L-0-0-0-L-0-0--|--0-0-0--0-0-0-0--0-L-0-0-0-L-0-0--|


  T T E  S T T E  S S S  S  S  S  S  S  S    T T E  S T T E  S S S S S S S E   
------------------------------------------|-----------------------------------|
------------------------------------------|-----------------------------------|
------------------------------------------|-----------------------------------|
------------------------------------------|-----------------------------------|
------------------------12-15-12-15-12-15-|-----------------------------------|
--0-0-0--0-0-0-0--0-L-0-12-15-12-15-12-15-|--0-0-0--0-0-0-0--0-L-0-0-0-L-0-0--|


  T T E  S T T E  S S S S S S S E     T T E  S T T E  S S S S S S S E   
-----------------------------------|-----------------------------------|
-----------------------------------|-----------------------------------|
-----------------------------------|-----------------------------------|
-----------------------------------|-----------------------------------|
-----------------------------------|-----------------------------------|
--0-0-0--0-0-0-0--0-L-0-0-0-L-0-0--|--0-0-0--0-0-0-0--0-L-0-0-0-L-0-0--|


  T T E  S T T E  S S S S S S S E     T T E  S T T E  S S S S S S S E   
-----------------------------------|-----------------------------------|
-----------------------------------|-----------------------------------|
-----------------------------------|-----------------------------------|
-----------------------------------|-----------------------------------|
-----------------------------------|-----------------------------------|
--0-0-0--0-0-0-0--0-L-0-0-0-L-0-0--|--0-0-0--0-0-0-0--0-L-0-0-0-L-0-0--|


  T T E  S T T E  S S S S S S S E     T T E  S Q    H          
-----------------------------------|-------------------------||
-----------------------------------|-------------------------||
-----------------------------------|-------------------------||
-----------------------------------|-------------------------||
-----------------------------------|-------------------------||
--0-0-0--0-0-0-0--0-L-0-0-0-L-0-0--|--0-0-0------------------||







Duration Legend
---------------
W - whole
H - half
Q - quarter
E - 8th
S - 16th
T - 32nd
X - 64th
. - note dotted
|-n-|  - n-tuplets


Tablature Legend
----------------
L - tied note
x - dead note
g - grace note
(n) - ghost note
> - accentuded note
NH - natural harmonic
AH - artificial harmonic
TH - tapped harmonic
SH - semi harmonic
PH - pitch harmonic
h - hammer on
p - pull off
b - bend
br - bendRelease
pb - preBend
pbr - preBendRelease
brb - bendReleaseBend
\n/ - tremolo bar dip
\n - tremolo bar dive
-/n - tremolo bar Release up
/n\ - tremolo bar inverted dip
/n - tremolo bar return
-\n - tremolo bar Release down
S - shift slide
s - legato slide
/ -  slide into from below or out of upwards
\ -  slide into from above or out of downwards
~ - vibrato
W - wide vibrato
tr - trill
TP - tremolo picking
T - tapping
S - slap
P - pop
< - fade in
^ - brush up
v - brush down
Suggest correction
Creating personal tab
Creating personal tab
You can edit any tab online and save it as your Personal.

You can edit, replace or remove any tab part or add personal notes – all changes will be seen only by you.

Personal tabs can be accessed anytime from any device, even offline.
Learn more »
Give kudos to tab author, rate the tab!
1 2 3 4 5
comments
print report bad tab
guest
You may want to rate the tab now too:
select rating
Wanna post a correction for this tab? Suggest correction