Oops, an error
Loading. Please wait.

Shine tab

version 2
version 2

Whole song

Interactive

400 views 1 this week
no commentswrite comment
1 2 3 4 5
x 3
add to favorites
×
Save as Personal and add changes to this tab that will be seen only by you. Learn more ›
×
You can save this tab as Personal to edit and correct it or add notes. All changes will be seen only by you. Learn more »
launch autoscroll
font size
0
reset
how to read this tab
guitar tuner
edit
Autoscroll
slow
fast
+/-
esc
set tempo
stop
Sevendust: Shine

Transcribed by: mysticguitar77

Facebook: https://www.facebook.com/MysticGuitar77
YouTube Channel: https://www.youtube.com/user/MysticGuitar77

Date last modified: January 12, 2016

Tuning: Modified Drop A# (A#,F,A#,D#,G#,A#)

Intro (clean)
A#|---------------------------------------------------------------------|
G#|---------------------------------------------------------------------|
D#|----14----14----14----15-14----12------12----12----14-14-15-14----12-|
A#|----------------------------------0----------------------------------|
 F|-13----13----13----13-------13------13----13----13-------------13----|
A#|---------------------------------------------------------------------|

A#|----------------------------------------------------0-------------------------------------------------------|
G#|--------------------------------------------------0--------0------------------------------------------------|
D#|----12----12----12---12---12---12-12-14-12---11---------11---11/12-12-12-12-14-12-12h14-14b-14b-14b-14b-14b-|
A#|-------------------0----0----0-------------0----0-----0------0--0--0--0--0--0--0--0--0--0---0---0---0---0---|
 F|-13----13----13---------------------------------------------------------------------------------------------|
A#|------------------------------------------------------------------------------------------------------------|
                      * *  * *  * *  *  *  *  *

A#|---------------------|
G#|---------------------|
D#|-14b-14b-14b-14b-14b-|
A#|-0---0---0---0---0---|
 F|---------------------|
A#|---------------------|

Riff 1 (distortion w/ wah)
A#|---------------------0-------0---0-------0---0--0-|
G#|---------------------0-------0---0-------0---0--0-|
D#|---------------------8-------5---5-------5---5--5-|
A#|---------------------x-------x---x-------x---x--x-| x3
 F|-5-5-5-5-5-5-5-5-5-5-5-5-5-5-5-x-5-5-5-5-5-x-5--5-|
A#|--------------------------------------------------|

A#|---------------------0-------0---0--0-0-0-0-0-0-0-0-0--|
G#|---------------------0-------0---0--0-0-0-0-0-0-0-0-0--|
D#|---------------------8-------5---5--5-5-5-5-5-5-5-5-5\-|
A#|---------------------x-------x---x--x-x-x-x-x-x-x-x-x--|
 F|-5-5-5-5-5-5-5-5-5-5-5-5-5-5-5-x-5--5-5-5-5-5-5-5-5-5\-|
A#|-------------------------------------------------------|

Riff 2
A#|---------------------------------------------------|
G#|---------------------------------------------------|
D#|----------------7b-------5---5b-------5---5b-------|
A#|----------------x--------x---x--------x---x--------|
 F|----------------5b-------3---3b-------3---3b-------|
A#|-0-0--0-0--0-0-----0-0-0---x----0-0-0---x----0-0-0-|
    * *  * *  * *     * * *        * * *        * * *

Play Riff 2 x6   "This is the last time I will talk to you..."

Riff 3   "I'm on a free fall..."
A#|-----------------------------------------------------|
G#|-----------------------------------------------------|
D#|---14---12---11---12---15-15-15-15-----15-15-----15b-|
A#|---x----x----x----x----x--x--x--x------x--x------x---|
 F|---12---10---9----10---13-13-13-13-----13-13-----13b-|
A#|-0----0----0----0----0-------------0-0-------0-0-----|

Play Riff 3 x2

Riff 4   "So hard, hard for me to shine..."
A#|-0--0-0-0-0-0--0-0-0-0-0--0-0-0--0-0-0-0-0--0-0-0-0-0--0-0-0--0-0-0-0-0--0-0-0-0-0--0-0-0-0--0-0-0-0-0--0-0-|
G#|-0--0-0-0-0-0--0-0-0-0-0--0-0-0--0-0-0-0-0--0-0-0-0-0--0-0-0--0-0-0-0-0--0-0-0-0-0--0-0-0-0--0-0-0-0-0--0-0-|
D#|-3--3-3-3-3-3--3-3-3-3-3--3-3-3--3-3-3-3-3--3-3-3-3-3--3-3-5--5-5-5-5-5--5-5-5-5-5--7-7-5-5--5-5-5-5-5--5-5-|
A#|-3--3-3-3-3-3--3-3-3-3-3--3-3-3--3-3-3-3-3--3-3-3-3-3--3-3-5--5-5-5-5-5--5-5-5-5-5--x-x-x-x--x-x-x-x-x--x-x-|
 F|-1--1-1-1-1-1--1-1-1-1-1--1-1-1--1-1-1-1-1--1-1-1-1-1--1-1-3--3-3-3-3-3--3-3-3-3-3--5-5-3-3--3-3-3-3-3--3-3-|
A#|------------------------------------------------------------------------------------------------------------|

         "Been so long..."
A#|-----------------------------------------------------------------------------|
G#|-----------------------------------------------------------------------------|
D#|-12-12-12--12-12-12-12-12-12-12--12-12-12-11-11--11-11-11-11-11-11-11--11-11-|
A#|-x--x--x---x--x--x--x--x--x--x---x--x--x--x--x---x--x--x--x--x--x--x---x--x--|
 F|-10-10-10--10-10-10-10-10-10-10--10-10-10-9--9---9--9--9--9--9--9--9---9--9--|
A#|-----------------------------------------------------------------------------|

A#|--------------------------------------------------------------------------------|
G#|--------------------------------------------------------------------------------|
D#|-11/12-12-12--12-12-12-12-12-12-12/14--12-12-11-11--11-11-11-11-11-11-11-11-11\-|
A#|-x--x--x--x---x--x--x--x--x--x--x--x---x--x--x--x---x--x--x--x--x--x--x--x--x---|
 F|-9//10-10-10--10-10-10-10-10-10-10/12--10-10-9--9---9--9--9--9--9--9--9--9--9\--|
A#|--------------------------------------------------------------------------------|

Play Riff 2 x2   (starts on the first octave chord, exclude beginning palm-mutes)
Play Riff 2 x4   "If you look real closely you can see right through..."
Play Riff 3 x2   "I'm on a free fall..."
Play Riff 4 x2   "So hard, hard for me to shine..."

Riff 4 alternate transition (played before you repeat the chorus for a 2nd time)
A#|--------------------------------------------------------------------------|
G#|--------------------------------------------------------------------------|
D#|-11/12-12-12--12-12-12-12-12-12-12/14--12-12-11-11--11-11-7-7-7-7-5-5-5-5-|
A#|-x--x--x--x---x--x--x--x--x--x--x--x---x--x--x--x---x--x--x-x-x-x-x-x-x-x-|
 F|-9//10-10-10--10-10-10-10-10-10-10/12--10-10-9--9---9--9--5-5-5-5-3-3-3-3-|
A#|--------------------------------------------------------------------------|

Riff 5
A#|--------------------------------------------------------|
G#|-------------------------------------------5*-----5*----|
D#|---------------------7*-5*---------------------------7b-|
A#|-0-0-0-0-0-0-0-0-0-0-------0-0-0-0-0-0-0-0----0-0----x--|
 F|-----------------------------------------------------5b-|
A#|--------------------------------------------------------|
    * * * * * * * * * *       * * * * * * * *    * *

A#|------------------------------------------------------------|
G#|------------------------------------------------------------|
D#|-----------------7*-----7*-5*-----------------5/7---------7-|
A#|-0-0-0-0-0-0-0-0----0-0-------0-0-0-0-0-0-0-0-x-x---------x-|
 F|----------------------------------------------3/5-5-5-5-5-5-|
A#|------------------------------------------------------------|
    * * * * * * * *    * *       * * * * * * * *     * * * *

Riff 6
A#|-------------------------|
G#|-------------------------|
D#|-------------------------|
A#|-------------------------| x3
 F|-------------------------|
A#|-0--0-x-x-0--0--0-x-x--x-|

A#|----------------------|
G#|----------------------|
D#|----------------------|
A#|----------------------|
 F|----------------------|
A#|-0--0-x-x-0--0--0-12\-|

Riff 7
A#|-----------------------------------------|
G#|-----------------------------------------|
D#|----------7*-5*-----------------7*-5*-7b-|
A#|--------------------------------------x--|
 F|--------------------------------------5b-|
A#|-0--0-x-x-------x-x--x-0--0-x-x----------|

Play Riff 7 x2   

Final chorus   "So hard, hard for me to shine..."
A#|-0--0-0-0-0-0--0-0-0-0-0--0-0-0--0-0-0-0-0--0-0-0-0-0--0-0-0--0-0-0-0-0--0-0-0-0-0--0-0-0-0--0-0-0-0-0--0-0-|
G#|-0--0-0-0-0-0--0-0-0-0-0--0-0-0--0-0-0-0-0--0-0-0-0-0--0-0-0--0-0-0-0-0--0-0-0-0-0--0-0-0-0--0-0-0-0-0--0-0-|
D#|-3--3-3-3-3-3--3-3-3-3-3--3-3-3--3-3-3-3-3--3-3-3-3-3--3-3-5--5-5-5-5-5--5-5-5-5-5--7-7-5-5--5-5-5-5-5--5-5-|
A#|-3--3-3-3-3-3--3-3-3-3-3--3-3-3--3-3-3-3-3--3-3-3-3-3--3-3-5--5-5-5-5-5--5-5-5-5-5--x-x-x-x--x-x-x-x-x--x-x-|
 F|-1--1-1-1-1-1--1-1-1-1-1--1-1-1--1-1-1-1-1--1-1-1-1-1--1-1-3--3-3-3-3-3--3-3-3-3-3--5-5-3-3--3-3-3-3-3--3-3-|
A#|------------------------------------------------------------------------------------------------------------|

A#|-0--0-0-0-0-0--0-0-0-0-0--0-0-0--0-0-0-0-0--0-0-0-0-0--0-0-0--0-0-0-0-0--0-0-0-0-0--0-0-0-0-0--0-0-0-0-0-0-|
G#|-0--0-0-0-0-0--0-0-0-0-0--0-0-0--0-0-0-0-0--0-0-0-0-0--0-0-0--0-0-0-0-0--0-0-0-0-0--0-0-0-0-0--0-0-0-0-0-0-|
D#|-3--3-3-3-3-3--3-3-3-3-3--3-3-3--3-3-3-3-3--3-3-3-3-3--3-3-5--5-5-5-5-5--5-5-5-5-5--5-7-7-9-9--9-9-9-9-9-9-|
A#|-3--3-3-3-3-3--3-3-3-3-3--3-3-3--3-3-3-3-3--3-3-3-3-3--3-3-5--5-5-5-5-5--5-5-5-5-5--x-x-x-x-x--x-x-x-x-x-x-|
 F|-1--1-1-1-1-1--1-1-1-1-1--1-1-1--1-1-1-1-1--1-1-1-1-1--1-1-3--3-3-3-3-3--3-3-3-3-3--3-5-5-7-7--7-7-7-7-7-7-|
A#|-----------------------------------------------------------------------------------------------------------|

            "Been so long..."
A#|-----------------------------------------------------------------------------|
G#|-----------------------------------------------------------------------------|
D#|-12-12-12--12-12-12-12-12-12-12--12-12-12-11-11--11-11-11-11-11-11-11--11-11-|
A#|-x--x--x---x--x--x--x--x--x--x---x--x--x--x--x---x--x--x--x--x--x--x---x--x--|
 F|-10-10-10--10-10-10-10-10-10-10--10-10-10-9--9---9--9--9--9--9--9--9---9--9--|
A#|-----------------------------------------------------------------------------|

A#|--------------------------------------------------------------------------|
G#|--------------------------------------------------------------------------|
D#|-11/12-12-12--12-12-12-12-12-12-12/14--12-12-11-11--11-11-7-7-7-7-5-5-5-5-|
A#|-x--x--x--x---x--x--x--x--x--x--x--x---x--x--x--x---x--x--x-x-x-x-x-x-x-x-|
 F|-9//10-10-10--10-10-10-10-10-10-10/12--10-10-9--9---9--9--5-5-5-5-3-3-3-3-|
A#|--------------------------------------------------------------------------|

            "To find, try to find myself..."
A#|-0--0-0-0-0-0--0-0-0-0-0--0-0-0--0-0-0-0-0--0-0-0-0-0--0-0-0--0-0-0-0-0--0-0-0-0-0--0-0----|
G#|-0--0-0-0-0-0--0-0-0-0-0--0-0-0--0-0-0-0-0--0-0-0-0-0--0-0-0--0-0-0-0-0--0-0-0-0-0--0-0----|
D#|-3--3-3-3-3-3--3-3-3-3-3--3-3-3--3-3-3-3-3--3-3-3-3-3--3-3-5--5-5-5-5-5--5-5-5-5-5--5-5-5b-|
A#|-3--3-3-3-3-3--3-3-3-3-3--3-3-3--3-3-3-3-3--3-3-3-3-3--3-3-5--5-5-5-5-5--5-5-5-5-5--5-5-x--|
 F|-1--1-1-1-1-1--1-1-1-1-1--1-1-1--1-1-1-1-1--1-1-1-1-1--1-1-3--3-3-3-3-3--3-3-3-3-3--3-3-3b-|
A#|-------------------------------------------------------------------------------------------|

Play Riff 6 x1   "I'm on a free fall..."

Ending    "On a free fall..."
A#|--------------------------------------------------------------------------|
G#|--------------------------------------------------------------------------|
D#|----------7*-5*------------------7*-5*-7b----------7*-5*-7b---------------|
A#|---------------------------------------x-----------------x----------------|
 F|---------------------------------------5b----------------5b---------------|
A#|-0--0-x-x-------x-x--x-0--0-x-x-----------0--0-x-x----------0--0-x-x-0--0-|

Enjoy!!



Suggest correction
Creating personal tab
Creating personal tab
You can edit any tab online and save it as your Personal.

You can edit, replace or remove any tab part or add personal notes – all changes will be seen only by you.

Personal tabs can be accessed anytime from any device, even offline.
Learn more »
Give kudos to tab author, rate the tab!
1 2 3 4 5
comments
print report bad tab
guest
You may want to rate the tab now too:
select rating
Wanna post a correction for this tab? Suggest correction