Oops, an error
Loading. Please wait.

Caroline intro tab

version 1
version 1

Intro

1,968 views 1 this week
2 commentsread comments
1 2 3 4 5
2 more votes to show rating
add to favorites
×
Save as Personal and add changes to this tab that will be seen only by you. Learn more ›
×
You can save this tab as Personal to edit and correct it or add notes. All changes will be seen only by you. Learn more »
launch autoscroll
font size
0
reset
how to read this tab
guitar tuner
edit
Autoscroll
slow
fast
+/-
esc
set tempo
stop
this song is play with regular tuning

7-6-2-6/7-7-6-2-9-7-6-6/7-6-9-7-6/7-4-4/5-2-|
--------------------------------------------|
--------------------------------------------|
--------------------------------------------|
--------------------------------------------|
--------------------------------------------|

there are about 1 million different ways to play with these tabs but the one below is the best.

Meduim to heavty distortion

----------------------------------------------|
----------------------------------------------|
----------------------------------------------|
----------------------------------------------|
9-8-4-8/9-9-8-4-11-9-8-8/9-8-11-9-8/9-6-6/7-4-|
7-6-2-6/7-7-6-2-9--7-6-6/7-6-9--7-6/7-4-4/5-2-|

            
            
Suggest correction
Creating personal tab
Creating personal tab
You can edit any tab online and save it as your Personal.

You can edit, replace or remove any tab part or add personal notes – all changes will be seen only by you.

Personal tabs can be accessed anytime from any device, even offline.
Learn more »
Give kudos to tab author, rate the tab!
1 2 3 4 5
comments
print report bad tab
2 comments total.
0 reply
ShadowTa 10 Jul 21, 2005 08:00 PM

Hey just to let you know I've tabbed the intro to this song also. Yours is correct in the way of sound but the way I have tabbed it it is easier to play. Its all right in the same spot and not all over the fret board. Mine goes like this. Well hope you dont mind me adding this. Peace.
h=hammer
p=pulloff
/=slide

0 reply
ShadowTa 10 Jul 21, 2005 08:00 PM

e-10-9----9h10--10-9----------------------------------
B------10------------10-10-8-7-7h8p7-10-8-7-7h8-------
G-----------------------------------------------9/11/7

guest
Wanna post a correction for this tab? Suggest correction