Oops, an error
Loading. Please wait.

Dont Fear The Reaper Tab

1,420 views 1 this week
no commentswrite comment
1 2 3 4 5
please rate
add to favorites
launch autoscroll
font size
0
reset
how to read this tab
guitar tuner
Autoscroll
slow
fast
+/-
esc
set tempo
stop
Help us to improve Ultimate-Guitar.com Take our survey!
×
Author
Difficulty
Tuning
intermediate
C G C F A D
Sever your ties
Safety in the sea
Dont fear the reaper  (this song was a total bitch to tab out as you can't quite make 
what the notes are)
TABBED BY eldoplaysguitar
TAB tuning drop c now i know this says standard tuning but i could't be bothered 
it. if you want to play it normal tuning just bring every note down two frets * four on the 
E.
intro
guitar 1
e-----------------------------|
B-----------------------------|
G-----------------------------|
D-6-4---4--4--4--6-4---4--4-4-|x2
A-----6--6--6--------6--6--6--|
E-----------------------------|
guitar 2
e-------------------------------------|
B-------------------------------------|
G-------------------------------------|
D-6--------------6--------------------|
A-6--------------6--------------------|
E-6--------------6--------------------|
guitar 2
e----------------------------------------------|
B----------------------------------------------|
G----------------------------------------------|
D----------------------------------------------|
A-66666666-2222-4444-66666666-2222-4444--------|
E-66666666-2222-4444-66666666-2222-4444--------|

verse

both guitars
e-------------------------------------|
B-------------------------------------|
G-------------------------------------|
D----------------------------4444444--|
A-66666666-22222222-66666666----------|
E-66666666-22222222-66666666----------|

e---------------------------------------|
B---------------------------------9999--|
G---------------------------------------|
D----------------------------6666-------|
A-66666666-22222222-66666666------------|
E-66666666-22222222-66666666------------|

"seasons dont fear the reaper"
guitar 1
e-------------------------------------------|
B-------------------------------------------|
G-----3333-44444444-------------------------|
D-6666-------------6666-4444-1--------------|
A-------------------------------------------|
E-------------------------------------------|
guitar 2
e--------------------------------------------------|
B--------------------------------------------------|
G--------------------------------------------------|
D--------------------------------------------------|
A-2222-4444-66666666-2222-4444-66666666-4444-------|
E-2222-4444-66666666-2222-4444-66666666-4444-------|

"we can be like they are"
guitar 1
e-----------------------------------------------------------------|
B-----------------------------------------------------------------|
G-----------------------------------------------------------------|
D-66666666-888-9999999999999999-888-111111111111111-999-88888888--|
A-----------------------------------------------------------------|
E-----------------------------------------------------------------|
guitar 2
e------------------------------------|
B------------------------------------|
G------------------------------------|
D------------------------------------|
A-222222222222-444-666666666666-444--|
E-222222222222-444-666666666666-444--|

Chourus .... La lala lal la

both guitars
e-------------------------------------|
B-------------------------------------|
G-------------------------------------|
D----------------------------4444444--|
A-66666666-22222222-66666666----------|
E-66666666-22222222-66666666----------|

e---------------------------------------|
B---------------------------------------|
G---------------------------------------|
D----------------------------6666-9999--|
A-66666666-22222222-66666666------------|
E-66666666-22222222-66666666------------|

verse

intro

chourus

Break down (scream part) "dont fear the reaper"
e--------------------------------------------------|
B--------------------------------------------------|
G--------------------------------------------------|
D--------------------------------------------------|
A-2222-4444-66666666-2222-4444-66666666-4444-------|
E-2222-4444-66666666-2222-4444-66666666-4444-------|

Buildup

e-----------------------------------|
B-----------------------------------|
G-----------------------------------|
D-66666666-888888-9999999999999999--|
A-----------------------------------|
E-----------------------------------|
just guitar part
e----------------------------------------------|
B----------------------------------------------|
G----------------------------------------------|
D----------------------------------------------|x4
A-6666---22-22--6666-----2222------------------|
E-6666---22-22--6666-4444----------------------|
verse
e--------------------------------------------------|
B--------------------------------------------------|
G--------------------------------------------------|
D--------------------------------------------------|
A-2222-4444-66666666-2222-4444-66666666-4444-------|
E-2222-4444-66666666-2222-4444-66666666-4444-------|

chourus

solo(ridiculusly fail. no point in tabbing just like 3 notes)

etc this is all of the song its kinda repetative but awesome
Suggest correction
What's this?
You can suggest a correction to this tab. Community and Mods will review your correction and vote to approve or reject it.
comments
We did not receive enough feedback on this tab! Please rate:
print report bad tab
1 2 3 4 5
guest
You may want to rate the tab now too:
select rating
Please do not post tabs as comments. Select "correction" instead!