Oops, an error
Loading. Please wait.

Voice Like A Nova Bass Tab

52 views 1 this week
no commentswrite comment
1 2 3 4 5
3 more votes to show rating
add to favorites
launch autoscroll
font size
0
reset
guitar tuner
Autoscroll
slow
fast
+/-
esc
set tempo
stop
Help us to improve Ultimate-Guitar.com Take our survey!
×
Author
Difficulty
Tuning
intermediate
D A D G B E
Voice like a Nova
Sever your Ties
Safety in the Sea
2008

Tuning: Drop D 

I don’t believe there’s any bass during the intro, but if you find 
yourself itching to play during it, just turn the volume down and 
hammer out sixteenths on the second fret of the low D. 

Verse
|-----------------------------------------------------------------|
|-----------------------------------------------------------------|
|-----------------------------------------------------------------|    
|-2~~-2-2-2-2-2-2-2-2-2-2-5---0---2~~-------------0---2---5---0---|x4

Chorus
|-----------------------------------------------------------------|
|-----------------------------------------------------------------|
|-2-2-2-2-2-2-2-2-2-2-2-2-2-2-2-2-5-5-5-5-5-5-5-5-7-7-7-7-7-7-7-7-|
|-----------------------------------------------------------------|

|-----------------------------------------------------------------|
|-----------------------------------------------------------------|
|-9-9-9-9-9-9-9-9-9-9-9-9-9-9-9-9-5-5-5-5-5-5-5-5-7-7-7-7-7-7-7-7-|
|-----------------------------------------------------------------|

|-----------------------------------------------------------------|
|-----------------------------------------------------------------|
|-2-2-2-2-2-2-2-2-2-2-2-2-2-2-2-2-5-5-5-5-5-5-5-5-7-7-7-7-7-7-7-7-|
|-----------------------------------------------------------------|

|-----------------------------------------------------------------|
|-----------------------------------------------------------------|
|-9-9-9-9-9-9-9-9-9-9-9-9-9-9-9-9-7-7-7-7-7-7-7-7-1010101010\-----|
|-----------------------------------------------------------------|
You see that slide down at the end there? Take pride in playing that slide.
It’s the only thing in the song that you play independent of the other
guitars. 

Post-Chorus
|-----------------------------------------------------------------|
|-----------------------------------------------------------------|
|-----------------------------------------------------------------|
|-2~~~~~~~~~~~~~~~~~~~~~~-7~~~~~~-5~~~~~~~~~~~~~~-4~~~~~~-7~~~~~~-|x6

|---------------------------------------------------------------------|
|---------------------------------------------------------------------|
|---------------------------------------------------------------------|
|-9-0-0-9-0-0-7-0-7h9-0-9-0-0-7-0-12-0-0-12-0-0-9-0-9h12-0-12-0-0-7h9-| 
Pm. * *   * *   *     *   * *   *    * *    * *   *      *    * *   x4

That riff is a bit tricky, but it's good practice. If it's too difficult
for you at this point, drop out the palm muting or nix the opens entirely,
whichever you prefer, and it'll still sound pretty good.

The guitars then play that riff once without bass, then:

Verse
Chorus 
Post-Chorus 

Wait one more beat before hitting this last note
|-----------------------------------------------------------------|
|-----------------------------------------------------------------|
|-----------------------------------------------------------------|
|---------2~~~~~~~~~~~~~~~~~~~~~~~~~~~~~~~~~~~~~~~~~~~~~~~~~~~~~~-|

And that's all.  Rate, comment, and enjoy! Send me a message if you have
any questions or corrections.

Suggest correction
Give kudos to tab author, rate the tab!
1 2 3 4 5
comments
print report bad tab
guest
You may want to rate the tab now too:
select rating
Wanna post a correction for this tab? Suggest correction