Oops, an error
Loading. Please wait.

El Desamor Tab

152 views 3 this week
no commentswrite comment
1 2 3 4 5
3 more votes to show rating
add to favorites
launch autoscroll
font size
0
reset
how to read this tab
guitar tuner
Autoscroll
slow
fast
+/-
esc
set tempo
stop
El compás de sevillana en Mim y Si


1ª parte
---------------------------------------------------------------
---------------------------------------------------------------
-------------------------4-2-----------------------------------
---------------------2-0---------------------------------------
--0-0---3-1-0-0--1-0-------------------------------------------
------0--------------------------------------------------------
 EL AMOR ES UN VIENTO QUE IGUAL VIENE QUE VA


                            2ªparte
-------------------------------------------------------------------
-------------------------------------------------------------------
---------------------------------------------------------------4-2-
-----------------------------------------------------------2-0-----
--0-0---3-1-0-------3---3-3-----------3-1-3---3-1-0-0--1-0---------
------0-------0-0-0---0-----2-2-2-0-0-------0----------------------
 QUE IGUAL VIENE QUE VA EL AMOR ES UN VIENTO
 QUE IGUAL VIENE QUE VA EL AMOR ES UN VIENTO
 QUE IGUAL VIENE QUE VA

                (ahora se repite la segunda parte)

 QUE IGUAL VIENE QUE VA
 SE MUERE Y AL MOMENTO VUELVE A RESUCITAR
 SE MUERE Y AL MOMENTO VUELVE A RESUCITAR.

                 y finalmente el estribillo

                          estribillo
---------------------------------------------------------------
---------------------------------------------------------------
---------------------------------------------------------------
---------------------------------------------------------------
-0-0-0--------------------3-0-1-0-0-0--------------------------
-------0-3-2-0-3--2-3-2-0--------------------------------------
SI ME ENAMORO ALGUN DIA ME DESENAMORARE, ME DESENAMORARE

---------------------------------------------------------------
---------------------------------------------------------------
---------------------------------------------------------------
---------------------------------------------------------------
---4-----4---------4-------------------------------------------
-0---0-2---2-3-2-0---2-0---------------------------------------
   PARA TENER LA ALEGRIA DE ENAMORARME OTRA VEZ


(TODO IGUAL)


CUANDO MAS TE QUERIA ME DIJISTE QUENO

ME DIJISTE QUE NO CUANDO MAS TE QUERIA

ME DIJISTE QUE NO CUANDO MAS TE QUERIA

ME DIJISTE QUE NO.

ME DIJISTE QUE NO Y ELAMOR QUE SENTIA

SE VOLVIO DESAMOR Y EL AMOR QUE SENTIA

SE VOLVIO DESAMOR********

EL AMOR ES UN JUEGO CON SU CARA Y SU CRUZ

CON SU CARA Y SU CRUZ EL AMOR ES UN JUEGO

CON SU CARA Y SU CRUZ EL AMOR ES UN JUEGO

CON SU CARA Y SU CRUZ.

CON SU CARA Y SU CRUZ

PUEDE SER NIEVE Y FUEGO PUEDE SER SOMBRA U LUZ

PUEDE SER NIEVE Y FUEGO PUEDE SER SOMBRA Y LUZ*********


YA NO QUIERO TUS BESOS HOY ME QUIER TU AMI

HOY ME QUIERE TU AMI YA NO QUIERO TUS BESOS

HOY ME QUIERE TU AMI

YA NO QUIERO TUS BESOS HOY ME QUIERE TU A MI.

HOY ME QUIERE TU A MI TU NO LLORES PORESO

QUE EL CARIÑO ES ASI TU NO LLORES PORESO

QUE EL CARIÑO ES ASI**********


Agradecimientos a: Alonso de quien he copiado la letra.
Suggest correction
Give kudos to tab author, rate the tab!
1 2 3 4 5
comments
print report bad tab
guest
You may want to rate the tab now too:
select rating
Wanna post a correction for this tab? Suggest correction