Oops, an error
Loading. Please wait.

Bass Battle Bass Tab

version 1
version 1

Whole song

Interactive

49,681 views 12 this week
4 commentsread comments
1 2 3 4 5
accurate
x 4
add to favorites
launch autoscroll
font size
0
reset
guitar tuner
Tab Pro tools
  • play this tab
  • loop segment
  • change instrument
  • show fretboard
  • metronome
×
Best way to learn
"Bass Battle"
Autoscroll
slow
fast
+/-
esc
set tempo
stop
Contributor
Scott:
G| ----------------------------------------------------------------|
D| ----------------------------------------------------------------|
A| --------------------------------------------------------5-5-5---|
E| 7-7-7-7-7-7-7-5-7-7-7-7-7-7-7-5-7-7-7-7-7-7-7-5-7-7-7-7------5--|          (3 Times)

Todd:
G| ------------------------------------------------------------------------|
D| ------------------------------------------------------------------------|
A| 12h14-14-12h14-14-12h14-14-14-14-14-14p12-------12h14-14-12h14-14-12h14-|
E| ------------------------------------------14p12-------------------------|

G| ------------------------------------------------------------------------|
D| ---------14-12----------------------------------------------------------|
A| 14p12h14--------12h14-14-12h14-14-12h14-14-14-14-14p12------14-12h14-14-|
E| -------------------------------------------------------14p12------------|

G| ----------------------------12h14-14-14-|
D| ----------------------------------------|
A| 14-14-12h14-12h14-----------------------|
E| ----------------------------------------|


Scott:
G| ----------------------------------|
D| ----------4-4-4-4-----------------|
A| 6-6-6-6-----------6-0-0-0-0-0-0-0-|
E| ----------------------------------|
   (2 times)
Todd:
G| -----------------------11---------------11------------------11-----------|
D| 1-1--13--13-13-13p11h13---13-13-13p11h13------13-13-13p11h13--13-11------|
A| 1-1----------------------------------------------------------------13-11-|
E| -------------------------------------------------------------------------|


Scott:
G| 13-13-12-12-11-11-10-10-|
D| ------------------------|
A| ------------------------|
E| ------------------------|
   (4 times)

Todd:
G| 13-13---15-15---16-16-16-15-15-15-16-16-16-18-18-18-20-20-20-18-18-18-16-16-16-15-15-15--|
D| -----------------------------------------------------------------------------------------|
A| -----------------------------------------------------------------------------------------|
E| -----------------------------------------------------------------------------------------|

G| 13-13-13-12-12-12-11-|
D| ---------------------|
A| ---------------------|
E| ---------------------|

G| 13-13-13-13p12-11-|
D| ------------------|
A| ------------------|
E| ------------------|
   (8 times)

G| ----------------------|
D| ----------------------|
A| ----------------------|
E| 4---4---4---4---4-----|
comments
print report bad tab
4 comments total. Showing first comments.
0 reply
JustJosh101 wrote on September 6 2010, 09:34 am

Not meaning to sound like a noob or anything (new to bass ) but what are the letters "h" and "p" for on the sections for Todd?

0 reply
indie-kid-lew wrote on September 9 2010, 12:53 pm

h means hammer on and p means pull :)

0 reply
evadbeva wrote on November 25 2010, 07:45 pm

Im a total noob in this one.. so, whats hammer and whats pull?

I want to post or [tab]
guest
You may want to rate the tab now too:
select rating
Please do not post tabs as comments. Select "correction" instead!