Oops, an error
Loading. Please wait.

Bass Battle Bass Tab

version 1
version 1

Intro

Whole song

Interactive

11,515 views 1 this week
1 commentread comment
1 2 3 4 5
worth learning
x 6
add to favorites
launch autoscroll
font size
0
reset
guitar tuner
Tab Pro tools
  • play this tab
  • loop segment
  • change instrument
  • show fretboard
  • metronome
×
Best way to learn
"Bass Battle"
Autoscroll
slow
fast
+/-
esc
set tempo
stop
Difficulty
novice
Scott's Part
G|------------------------|
D|------------------------|
A|------------------------|
E|--6--6--6--6--6--6--6--4| x3

G|------------------------|
D|------------------------|
A|--------------5--5--5---|
E|--6--6--6--6-----------4|


Todd's Part

G-------------------------|
D-7-99-7-99-7-99-7-999-7--|
A------------------------9|
E-------------------------|

G---------------------8h97|
D-7-99-7-99-7-99-7-99-----|
A-------------------------|
E-------------------------|
comments
print report bad tab
1 comment total.
0 reply
Fma1416 wrote on August 30 2010, 09:37 pm

I hate when unregistered people post tabs, it's impossible to correct them.

I would post corrections here, but that would be moot as someone just posted a near perfect tab.

I want to post or [tab]
guest
You may want to rate the tab now too:
select rating
Please do not post tabs as comments. Select "correction" instead!