Oops, an error
Loading. Please wait.

Bass Battle Bass Tab

version 2
version 2

Whole song

Interactive

63,025 views 3 this week
3 commentsread comments
1 2 3 4 5
excellent!
x 17
add to favorites
launch autoscroll
font size
0
reset
guitar tuner
Autoscroll
slow
fast
+/-
esc
set tempo
stop
Help us to improve Ultimate-Guitar.com Take our survey!
×
Author
Difficulty
advanced
-------------------------------------------------------------------------------
			     Bass Battle - Sex Bob-omb
-------------------------------------------------------------------------------

Tabbed By : Rocksnotdead101
e-mail: kal8@hotmail.co.uk

Tuning: Standard: E A D G

Ok, well obviously to perform this properly you need more than one Bassist and you need 
split the parts.

Played with a pick in the film, but play however you prefer.

Listen to track for exact timing on overlaps.


Scott (player 1):
G| ---------------------------------------------------------------|
D| ---------------------------------------------------------------|
A| -------------------------------------------------------5-5-5---|
E| -7-7-7-7-7-7-5-7-7-7-7-7-7-7-5-7-7-7-7-7-7-7-5-7-7-7-7-------5-| x4

OR

G| ---------------------------------------------------------------|
D| -------------------------------------------------------0-0-0---|
A| -2-2-2-2-2-2-0-2-2-2-2-2-2-2-0-2-2-2-2-2-2-2-0-2-2-2-2-------0-|
E| ---------------------------------------------------------------| x4


Todd (Player 2):
G| ------------------------------------------------------------------------|
D| ------------------------------------------------------------------------|
A| 12-14-14-12-14-14-12-14-14-14-14-14-14-12-------12-14-14-12-14-14-12-14-|
E| ------------------------------------------14-12-------------------------|

G| ------------------------------------------------------------------------|
D| ---------14-12----------------------------------------------------------|
A| 14p12h14--------12--14-14-12-14-14-12-14-14-14-14-14-12-----14-12-14-14-|
E| -------------------------------------------------------14-12------------|

G| ------------------12h14-14--------------------|
D| ----------------------------------------------|
A| 14-14-12h14-12h14-----------12-14-14-12-14-14-|
E| ----------------------------------------------|


Scott (Player 1):
G| --------------------------------|
D| --------4-4-4-------------------|
A| 6-6-6-6-------6-6-6-0-0-0-0-0-0-|
E| --------------------------------| x3 or x4 (4 if overlapping the predecessing riff by 
2.

Todd (Player 2):
G| --------------------------11----------------11--------------------------------------|
D| 1-1--/13---13-13-13p11h13-----13-13-13p11h13----13-13-13p11h13-13--13-13-13p11h13-13|
A| 1-1---------------------------------------------------------------------------------|
E| ------------------------------------------------------------------------------------|

Then straight after as Scott's part grows louder. (Or just improvise)

G| --------------------------------|
D| -------11-13-------11-13--------|
A| -11-13-------11-13--------------|
E| --------------------------------|

Scott (Player 1):
G| 13-13-12-12-11-11-10-10-|
D| ------------------------|
A| ------------------------|
E| ------------------------| Repeat until (*) and then deliberately fumble notes and 
to show your failure ;)


Todd (Player 2):
G| 13-13---15-15---16-16-16-15-15-15-16-16-16-18-18-18-20-20-20-18-18-18-16-16-16-15-15-15--|
D| -----------------------------------------------------------------------------------------|
A| -----------------------------------------------------------------------------------------|
E| -----------------------------------------------------------------------------------------|

G| 13-13-13-12-12-12-13-13-13-11-11-11-|   (*)
D| ------------------------------------|
A| ------------------------------------|
E| ------------------------------------| x3

G| 13-13-13-13-12-11-|
D| ------------------|
A| ------------------|
E| ------------------| x6


G| ----------------------|
D| ----------------------|
A| ----------------------|
E| 4---4---0~------------| Or what ever you want, (hey it's a bass battle after all. 
him with style~)
Suggest correction
What's this?
You can suggest a correction to this tab. Community and Mods will review your correction and vote to approve or reject it.
comments
print report bad tab
3 comments total.
0 reply
Jordo141 529 wrote on June 22 2011, 04:41 pm

Spot on. Well done sir

0 reply
dabassman2817 11 wrote on August 24 2011, 10:31 pm

scott's bass is tuned a half-step down not a problem for the other bassist

+1 reply
FuzzyMarceline 13 wrote on May 7 2014, 09:23 pm

Doobie magoo Your thing is wrong. When scotty does the chromatic jammy jam its on the a string

G| -------------------|
D| ------------------------|
A| 13-13-12-12-11-11-10-10-|
E| ------------------------|

guest
You may want to rate the tab now too:
select rating
Please do not post tabs as comments. Select "correction" instead!